  0
SECTION
  2
HEADER
  9
$ACADVER
  1
AC1014
  9
$ACADMAINTVER
 70
     9
  9
$DWGCODEPAGE
  3
ANSI_1252
  9
$INSBASE
 10
0.0
 20
0.0
 30
0.0
  9
$EXTMIN
 10
1.000000000000000E+20
 20
1.000000000000000E+20
 30
1.000000000000000E+20
  9
$EXTMAX
 10
-1.000000000000000E+20
 20
-1.000000000000000E+20
 30
-1.000000000000000E+20
  9
$LIMMIN
 10
0.0
 20
0.0
  9
$LIMMAX
 10
12.0
 20
9.0
  9
$ORTHOMODE
 70
     0
  9
$REGENMODE
 70
     1
  9
$FILLMODE
 70
     1
  9
$QTEXTMODE
 70
     0
  9
$MIRRTEXT
 70
     1
  9
$DRAGMODE
 70
     2
  9
$LTSCALE
 40
1.0
  9
$OSMODE
 70
    37
  9
$ATTMODE
 70
     1
  9
$TEXTSIZE
 40
0.2
  9
$TRACEWID
 40
0.05
  9
$TEXTSTYLE
  7
STANDARD
  9
$CLAYER
  8
0
  9
$CELTYPE
  6
BYLAYER
  9
$CECOLOR
 62
   256
  9
$CELTSCALE
 40
1.0
  9
$DELOBJ
 70
     1
  9
$DISPSILH
 70
     0
  9
$DIMSCALE
 40
1.0
  9
$DIMASZ
 40
0.18
  9
$DIMEXO
 40
0.0625
  9
$DIMDLI
 40
0.38
  9
$DIMRND
 40
0.0
  9
$DIMDLE
 40
0.0
  9
$DIMEXE
 40
0.18
  9
$DIMTP
 40
0.0
  9
$DIMTM
 40
0.0
  9
$DIMTXT
 40
0.18
  9
$DIMCEN
 40
0.09
  9
$DIMTSZ
 40
0.0
  9
$DIMTOL
 70
     0
  9
$DIMLIM
 70
     0
  9
$DIMTIH
 70
     1
  9
$DIMTOH
 70
     1
  9
$DIMSE1
 70
     0
  9
$DIMSE2
 70
     0
  9
$DIMTAD
 70
     0
  9
$DIMZIN
 70
     0
  9
$DIMBLK
  1

  9
$DIMASO
 70
     1
  9
$DIMSHO
 70
     1
  9
$DIMPOST
  1

  9
$DIMAPOST
  1

  9
$DIMALT
 70
     0
  9
$DIMALTD
 70
     2
  9
$DIMALTF
 40
25.4
  9
$DIMLFAC
 40
1.0
  9
$DIMTOFL
 70
     0
  9
$DIMTVP
 40
0.0
  9
$DIMTIX
 70
     0
  9
$DIMSOXD
 70
     0
  9
$DIMSAH
 70
     0
  9
$DIMBLK1
  1

  9
$DIMBLK2
  1

  9
$DIMSTYLE
  2
STANDARD
  9
$DIMCLRD
 70
     0
  9
$DIMCLRE
 70
     0
  9
$DIMCLRT
 70
     0
  9
$DIMTFAC
 40
1.0
  9
$DIMGAP
 40
0.09
  9
$DIMJUST
 70
     0
  9
$DIMSD1
 70
     0
  9
$DIMSD2
 70
     0
  9
$DIMTOLJ
 70
     1
  9
$DIMTZIN
 70
     0
  9
$DIMALTZ
 70
     0
  9
$DIMALTTZ
 70
     0
  9
$DIMFIT
 70
     3
  9
$DIMUPT
 70
     0
  9
$DIMUNIT
 70
     2
  9
$DIMDEC
 70
     4
  9
$DIMTDEC
 70
     4
  9
$DIMALTU
 70
     2
  9
$DIMALTTD
 70
     2
  9
$DIMTXSTY
  7
STANDARD
  9
$DIMAUNIT
 70
     0
  9
$LUNITS
 70
     2
  9
$LUPREC
 70
     4
  9
$SKETCHINC
 40
0.1
  9
$FILLETRAD
 40
0.5
  9
$AUNITS
 70
     0
  9
$AUPREC
 70
     0
  9
$MENU
  1
.
  9
$ELEVATION
 40
0.0
  9
$PELEVATION
 40
0.0
  9
$THICKNESS
 40
0.0
  9
$LIMCHECK
 70
     0
  9
$CHAMFERA
 40
0.5
  9
$CHAMFERB
 40
0.5
  9
$CHAMFERC
 40
1.0
  9
$CHAMFERD
 40
0.0
  9
$SKPOLY
 70
     0
  9
$TDCREATE
 40
2454698.713237419
  9
$TDUPDATE
 40
2454698.71323743
  9
$TDINDWG
 40
0.0000000116
  9
$TDUSRTIMER
 40
0.0000000116
  9
$USRTIMER
 70
     1
  9
$ANGBASE
 50
0.0
  9
$ANGDIR
 70
     0
  9
$PDMODE
 70
     0
  9
$PDSIZE
 40
0.0
  9
$PLINEWID
 40
0.0
  9
$COORDS
 70
     1
  9
$SPLFRAME
 70
     0
  9
$SPLINETYPE
 70
     6
  9
$SPLINESEGS
 70
     8
  9
$ATTDIA
 70
     0
  9
$ATTREQ
 70
     1
  9
$HANDLING
 70
     1
  9
$HANDSEED
  5
1E3
  9
$SURFTAB1
 70
     6
  9
$SURFTAB2
 70
     6
  9
$SURFTYPE
 70
     6
  9
$SURFU
 70
     6
  9
$SURFV
 70
     6
  9
$UCSNAME
  2

  9
$UCSORG
 10
0.0
 20
0.0
 30
0.0
  9
$UCSXDIR
 10
1.0
 20
0.0
 30
0.0
  9
$UCSYDIR
 10
0.0
 20
1.0
 30
0.0
  9
$PUCSNAME
  2

  9
$PUCSORG
 10
0.0
 20
0.0
 30
0.0
  9
$PUCSXDIR
 10
1.0
 20
0.0
 30
0.0
  9
$PUCSYDIR
 10
0.0
 20
1.0
 30
0.0
  9
$USERI1
 70
     0
  9
$USERI2
 70
     0
  9
$USERI3
 70
     0
  9
$USERI4
 70
     0
  9
$USERI5
 70
     0
  9
$USERR1
 40
0.0
  9
$USERR2
 40
0.0
  9
$USERR3
 40
0.0
  9
$USERR4
 40
0.0
  9
$USERR5
 40
0.0
  9
$WORLDVIEW
 70
     1
  9
$SHADEDGE
 70
     3
  9
$SHADEDIF
 70
    70
  9
$TILEMODE
 70
     1
  9
$MAXACTVP
 70
    64
  9
$PINSBASE
 10
0.0
 20
0.0
 30
0.0
  9
$PLIMCHECK
 70
     0
  9
$PEXTMIN
 10
1.000000000000000E+20
 20
1.000000000000000E+20
 30
1.000000000000000E+20
  9
$PEXTMAX
 10
-1.000000000000000E+20
 20
-1.000000000000000E+20
 30
-1.000000000000000E+20
  9
$PLIMMIN
 10
0.0
 20
0.0
  9
$PLIMMAX
 10
12.0
 20
9.0
  9
$UNITMODE
 70
     0
  9
$VISRETAIN
 70
     1
  9
$PLINEGEN
 70
     0
  9
$PSLTSCALE
 70
     1
  9
$TREEDEPTH
 70
  3020
  9
$PICKSTYLE
 70
     1
  9
$CMLSTYLE
  2
STANDARD
  9
$CMLJUST
 70
     0
  9
$CMLSCALE
 40
1.0
  9
$PROXYGRAPHICS
 70
     1
  9
$MEASUREMENT
 70
     0
  0
ENDSEC
  0
SECTION
  2
CLASSES
  0
CLASS
  1
ACDBDICTIONARYWDFLT
  2
AcDbDictionaryWithDefault
  3
ObjectDBX Classes
 90
        0
280
     0
281
     0
  0
CLASS
  1
VISUALSTYLE
  2
AcDbVisualStyle
  3
ObjectDBX Classes
 90
     4095
280
     0
281
     0
  0
CLASS
  1
SCALE
  2
AcDbScale
  3
ObjectDBX Classes
 90
     1153
280
     0
281
     0
  0
CLASS
  1
DICTIONARYVAR
  2
AcDbDictionaryVar
  3
ObjectDBX Classes
 90
        0
280
     0
281
     0
  0
CLASS
  1
XRECORD
  2
AcDbXrecord
  3
AutoCAD 2000
 90
        0
280
     0
281
     0
  0
CLASS
  1
LWPOLYLINE
  2
AcDbPolyline
  3
AutoCAD 2000
 90
        0
280
     0
281
     1
  0
CLASS
  1
HATCH
  2
AcDbHatch
  3
AutoCAD 2000
 90
        0
280
     0
281
     1
  0
CLASS
  1
ACDBPLACEHOLDER
  2
AcDbPlaceHolder
  3
ObjectDBX Classes
 90
        0
280
     0
281
     0
  0
CLASS
  1
LAYOUT
  2
AcDbLayout
  3
ObjectDBX Classes
 90
        0
280
     0
281
     0
  0
ENDSEC
  0
SECTION
  2
TABLES
  0
TABLE
  2
VPORT
  5
8
330
0
100
AcDbSymbolTable
 70
     1
  0
VPORT
  5
29
330
8
100
AcDbSymbolTableRecord
100
AcDbViewportTableRecord
  2
*ACTIVE
 70
     0
 10
0.0
 20
0.0
 11
1.0
 21
1.0
 12
0.0
 22
0.0
 13
0.0
 23
0.0
 14
0.5
 24
0.5
 15
0.5
 25
0.5
 16
0.0
 26
0.0
 36
1.0
 17
0.0
 27
0.0
 37
-1000.0
 40
45.52375053580328
 41
1.470588235294118
 42
50.0
 43
72.19144529171659
 44
94.31653753687863
 50
0.0
 51
0.0
 71
     0
 72
   100
 73
     1
 74
     3
 75
     0
 76
     0
 77
     0
 78
     0
  0
ENDTAB
  0
TABLE
  2
LTYPE
  5
5
330
0
100
AcDbSymbolTable
 70
     1
  0
LTYPE
  5
14
330
5
100
AcDbSymbolTableRecord
100
AcDbLinetypeTableRecord
  2
BYBLOCK
 70
     0
  3

 72
    65
 73
     0
 40
0.0
  0
LTYPE
  5
15
330
5
100
AcDbSymbolTableRecord
100
AcDbLinetypeTableRecord
  2
BYLAYER
 70
     0
  3

 72
    65
 73
     0
 40
0.0
  0
LTYPE
  5
16
330
5
100
AcDbSymbolTableRecord
100
AcDbLinetypeTableRecord
  2
CONTINUOUS
 70
     0
  3
Solid line
 72
    65
 73
     0
 40
0.0
  0
ENDTAB
  0
TABLE
  2
LAYER
  5
2
330
0
100
AcDbSymbolTable
 70
     3
  0
LAYER
  5
10
330
2
100
AcDbSymbolTableRecord
100
AcDbLayerTableRecord
  2
0
 70
     0
 62
     7
  6
CONTINUOUS
  0
LAYER
  5
5D
330
2
100
AcDbSymbolTableRecord
100
AcDbLayerTableRecord
  2
PROFILEEDGES
 70
     0
 62
     7
  6
CONTINUOUS
  0
LAYER
  5
5E
330
2
100
AcDbSymbolTableRecord
100
AcDbLayerTableRecord
  2
SECTIONCUTEDGES
 70
     0
 62
     7
  6
CONTINUOUS
  0
ENDTAB
  0
TABLE
  2
STYLE
  5
3
330
0
100
AcDbSymbolTable
 70
     2
  0
STYLE
  5
11
330
3
100
AcDbSymbolTableRecord
100
AcDbTextStyleTableRecord
  2
STANDARD
 70
     0
 40
0.0
 41
1.0
 50
0.0
 71
     0
 42
0.2
  3
txt
  4

  0
STYLE
  5
1A7
330
3
100
AcDbSymbolTableRecord
100
AcDbTextStyleTableRecord
  2
TAHOMA
 70
     0
 40
0.2
 41
1.0
 50
0.0
 71
     0
 42
0.2
  3
Tahoma
  4

1001
ACAD
1000
Tahoma
1071
       34
  0
ENDTAB
  0
TABLE
  2
VIEW
  5
6
330
0
100
AcDbSymbolTable
 70
     0
  0
ENDTAB
  0
TABLE
  2
UCS
  5
7
330
0
100
AcDbSymbolTable
 70
     0
  0
ENDTAB
  0
TABLE
  2
APPID
  5
9
330
0
100
AcDbSymbolTable
 70
     1
  0
APPID
  5
12
330
9
100
AcDbSymbolTableRecord
100
AcDbRegAppTableRecord
  2
ACAD
 70
     0
  0
ENDTAB
  0
TABLE
  2
DIMSTYLE
  5
A
330
0
100
AcDbSymbolTable
 70
     1
  0
DIMSTYLE
105
27
330
A
100
AcDbSymbolTableRecord
100
AcDbDimStyleTableRecord
  2
STANDARD
 70
     0
  3

  4

  5

  6

  7

 40
1.0
 41
0.18
 42
0.0625
 43
0.38
 44
0.18
 45
0.0
 46
0.0
 47
0.0
 48
0.0
140
0.18
141
0.09
142
0.0
143
25.4
144
1.0
145
0.0
146
1.0
147
0.09
 71
     0
 72
     0
 73
     1
 74
     1
 75
     0
 76
     0
 77
     0
 78
     0
170
     0
171
     2
172
     0
173
     0
174
     0
175
     0
176
     0
177
     0
178
     0
270
     2
271
     4
272
     4
273
     2
274
     2
340
11
275
     0
280
     0
281
     0
282
     0
283
     1
284
     0
285
     0
286
     0
287
     3
288
     0
  0
ENDTAB
  0
TABLE
  2
BLOCK_RECORD
  5
1
330
0
100
AcDbSymbolTable
 70
     1
  0
BLOCK_RECORD
  5
1F
330
1
100
AcDbSymbolTableRecord
100
AcDbBlockTableRecord
  2
*MODEL_SPACE
  0
BLOCK_RECORD
  5
1B
330
1
100
AcDbSymbolTableRecord
100
AcDbBlockTableRecord
  2
*PAPER_SPACE
  0
ENDTAB
  0
ENDSEC
  0
SECTION
  2
BLOCKS
  0
BLOCK
  5
20
330
1F
100
AcDbEntity
  8
0
100
AcDbBlockBegin
  2
*MODEL_SPACE
 70
     0
 10
0.0
 20
0.0
 30
0.0
  3
*MODEL_SPACE
  1

  0
ENDBLK
  5
21
330
1F
100
AcDbEntity
  8
0
100
AcDbBlockEnd
  0
BLOCK
  5
1C
330
1B
100
AcDbEntity
 67
     1
  8
0
100
AcDbBlockBegin
  2
*PAPER_SPACE
 70
     0
 10
0.0
 20
0.0
 30
0.0
  3
*PAPER_SPACE
  1

  0
ENDBLK
  5
1D
330
1B
100
AcDbEntity
 67
     1
  8
0
100
AcDbBlockEnd
  0
ENDSEC
  0
SECTION
  2
ENTITIES
  0
LINE
  5
5F
330
1F
100
AcDbEntity
  8
0
100
AcDbLine
 10
25.35867575156558
 20
-0.9505485063427865
 30
0.0
 11
23.43997467118978
 21
-0.9509362330982791
 31
0.0
  0
LINE
  5
60
330
1F
100
AcDbEntity
  8
0
100
AcDbLine
 10
-25.67276560123457
 20
-0.9608608240800207
 30
0.0
 11
-23.75490991402539
 21
-0.9604732681596586
 31
0.0
  0
LINE
  5
61
330
1F
100
AcDbEntity
  8
0
100
AcDbLine
 10
2.923986969277178
 20
-5.867126084659346
 30
0.0
 11
-19.64676203483847
 21
-5.871734796013878
 31
0.0
  0
LINE
  5
62
330
1F
100
AcDbEntity
  8
0
100
AcDbLine
 10
21.07558883883911
 20
-5.288656530059421
 30
0.0
 11
8.108430648099823
 21
-5.291301084100762
 31
0.0
  0
LINE
  5
63
330
1F
100
AcDbEntity
  8
0
100
AcDbLine
 10
5.460579366847427
 20
-0.74330638846065
 30
0.0
 11
6.013615792926056
 21
-0.8151594800095184
 31
0.0
  0
LINE
  5
64
330
1F
100
AcDbEntity
  8
0
100
AcDbLine
 10
6.013615792926056
 20
-0.8151594800095184
 30
0.0
 11
6.531146785131773
 21
-1.026172123856228
 31
0.0
  0
LINE
  5
65
330
1F
100
AcDbEntity
  8
0
100
AcDbLine
 10
6.531146785131773
 20
-1.026172123856228
 30
0.0
 11
6.978259759462129
 21
-1.362311854503764
 31
0.0
  0
LINE
  5
66
330
1F
100
AcDbEntity
  8
0
100
AcDbLine
 10
6.978259759462129
 20
-1.362311854503764
 30
0.0
 11
7.324621564279608
 21
-1.801147844808933
 31
0.0
  0
LINE
  5
67
330
1F
100
AcDbEntity
  8
0
100
AcDbLine
 10
7.324621564279608
 20
-1.801147844808933
 30
0.0
 11
7.546508466868419
 21
-2.313253096558318
 31
0.0
  0
LINE
  5
68
330
1F
100
AcDbEntity
  8
0
100
AcDbLine
 10
7.546508466868419
 20
-2.313253096558318
 30
0.0
 11
7.628453723632993
 21
-2.864082039990183
 31
0.0
  0
LINE
  5
69
330
1F
100
AcDbEntity
  8
0
100
AcDbLine
 10
3.62156948080769
 20
-1.801897497560746
 30
0.0
 11
3.957548658268194
 21
-1.362922802872377
 31
0.0
  0
LINE
  5
6A
330
1F
100
AcDbEntity
  8
0
100
AcDbLine
 10
3.957548658268194
 20
-1.362922802872377
 30
0.0
 11
4.396708103876596
 21
-1.026603512281421
 31
0.0
  0
LINE
  5
6B
330
1F
100
AcDbEntity
  8
0
100
AcDbLine
 10
4.396708103876596
 20
-1.026603512281421
 30
0.0
 11
4.909245216634467
 21
-0.8153825825675708
 31
0.0
  0
LINE
  5
6C
330
1F
100
AcDbEntity
  8
0
100
AcDbLine
 10
4.909245216634467
 20
-0.8153825825675708
 30
0.0
 11
5.460579366847427
 21
-0.74330638846065
 31
0.0
  0
LINE
  5
6D
330
1F
100
AcDbEntity
  8
0
100
AcDbLine
 10
7.628453723632993
 20
-2.864082039990183
 30
0.0
 11
8.108430648099823
 21
-5.291301084100762
 31
0.0
  0
LINE
  5
6E
330
1F
100
AcDbEntity
  8
0
100
AcDbLine
 10
5.476573579513675
 20
-0.7129405234165084
 30
0.0
 11
6.031232568861736
 21
-0.7849994495133926
 31
0.0
  0
LINE
  5
6F
330
1F
100
AcDbEntity
  8
0
100
AcDbLine
 10
4.923626766297168
 20
-0.7852231912845575
 30
0.0
 11
5.476573579513675
 21
-0.7129405234165084
 31
0.0
  0
LINE
  5
70
330
1F
100
AcDbEntity
  8
0
100
AcDbLine
 10
4.409593991628473
 20
-0.9970495711904718
 30
0.0
 11
4.923626766297168
 21
-0.7852231912845575
 31
0.0
  0
LINE
  5
71
330
1F
100
AcDbEntity
  8
0
100
AcDbLine
 10
3.969155778373896
 20
-1.33433404913706
 30
0.0
 11
4.409593991628473
 21
-0.9970495711904718
 31
0.0
  0
LINE
  5
72
330
1F
100
AcDbEntity
  8
0
100
AcDbLine
 10
3.63220114594614
 20
-1.774570665136957
 30
0.0
 11
3.969155778373896
 21
-1.33433404913706
 31
0.0
  0
LINE
  5
73
330
1F
100
AcDbEntity
  8
0
100
AcDbLine
 10
3.352720378708938
 20
-2.84069069165878
 30
0.0
 11
2.932645102351238
 21
-5.851600060505141
 31
0.0
  0
LINE
  5
74
330
1F
100
AcDbEntity
  8
0
100
AcDbLine
 10
2.932645102351238
 20
-5.851600060505141
 30
0.0
 11
-18.64813250161864
 21
-5.856006485995588
 31
0.0
  0
LINE
  5
75
330
1F
100
AcDbEntity
  8
0
100
AcDbLine
 10
-25.74799688063234
 20
-0.931118376320329
 30
0.0
 11
-23.77075979280701
 21
-0.930718846037295
 31
0.0
  0
LINE
  5
76
330
1F
100
AcDbEntity
  8
0
100
AcDbLine
 10
-26.49248419342358
 20
0.4776080811402739
 30
0.0
 11
-25.74799688063234
 21
-0.931118376320329
 31
0.0
  0
LINE
  5
77
330
1F
100
AcDbEntity
  8
0
100
AcDbLine
 10
26.1778010923669
 20
0.4882189959563764
 30
0.0
 11
25.43298498929503
 21
-0.9207764945611164
 31
0.0
  0
LINE
  5
78
330
1F
100
AcDbEntity
  8
0
100
AcDbLine
 10
25.43298498929503
 20
-0.9207764945611164
 30
0.0
 11
23.4558315532134
 21
-0.9211760079410666
 31
0.0
  0
LINE
  5
79
330
1F
100
AcDbEntity
  8
0
100
AcDbLine
 10
21.13791891895964
 20
-5.271438675429062
 30
0.0
 11
8.132411091149407
 21
-5.274090954386905
 31
0.0
  0
LINE
  5
7A
330
1F
100
AcDbEntity
  8
0
100
AcDbLine
 10
7.650898869408963
 20
-2.839818640909034
 30
0.0
 11
8.132411091149407
 21
-5.274090954386905
 31
0.0
  0
LINE
  5
7B
330
1F
100
AcDbEntity
  8
0
100
AcDbLine
 10
7.568686513558661
 20
-2.287399297373737
 30
0.0
 11
7.650898869408963
 21
-2.839818640909034
 31
0.0
  0
LINE
  5
7C
330
1F
100
AcDbEntity
  8
0
100
AcDbLine
 10
7.346124064730922
 20
-1.77381885530306
 30
0.0
 11
7.568686513558661
 21
-2.287399297373737
 31
0.0
  0
LINE
  5
7D
330
1F
100
AcDbEntity
  8
0
100
AcDbLine
 10
6.998726316073673
 20
-1.333721346153291
 30
0.0
 11
7.346124064730922
 21
-1.77381885530306
 31
0.0
  0
LINE
  5
7E
330
1F
100
AcDbEntity
  8
0
100
AcDbLine
 10
6.550288275746951
 20
-0.9966169456516434
 30
0.0
 11
6.998726316073673
 21
-1.333721346153291
 31
0.0
  0
LINE
  5
7F
330
1F
100
AcDbEntity
  8
0
100
AcDbLine
 10
6.031232568861736
 20
-0.7849994495133926
 30
0.0
 11
6.550288275746951
 21
-0.9966169456516434
 31
0.0
  0
LINE
  5
80
330
1F
100
AcDbEntity
  8
0
100
AcDbLine
 10
2.923986969277178
 20
-5.867126084659346
 30
0.0
 11
2.932645102351238
 21
-5.851600060505141
 31
0.0
  0
LINE
  5
81
330
1F
100
AcDbEntity
  8
0
100
AcDbLine
 10
-25.67276560123457
 20
-0.9608608240800207
 30
0.0
 11
-25.74799688063234
 21
-0.931118376320329
 31
0.0
  0
LINE
  5
82
330
1F
100
AcDbEntity
  8
0
100
AcDbLine
 10
25.35867575156558
 20
-0.9505485063427865
 30
0.0
 11
25.43298498929503
 21
-0.9207764945611164
 31
0.0
  0
LINE
  5
83
330
1F
100
AcDbEntity
  8
0
100
AcDbLine
 10
21.07558883883911
 20
-5.288656530059421
 30
0.0
 11
21.13791891895964
 21
-5.271438675429062
 31
0.0
  0
LINE
  5
84
330
1F
100
AcDbEntity
  8
0
100
AcDbLine
 10
8.108430648099823
 20
-5.291301084100762
 30
0.0
 11
8.132411091149407
 21
-5.274090954386905
 31
0.0
  0
LINE
  5
85
330
1F
100
AcDbEntity
  8
0
100
AcDbLine
 10
7.628453723632993
 20
-2.864082039990183
 30
0.0
 11
7.650898869408963
 21
-2.839818640909034
 31
0.0
  0
LINE
  5
86
330
1F
100
AcDbEntity
  8
0
100
AcDbLine
 10
-26.30394167166348
 20
3.824734742894822
 30
0.0
 11
25.99012715826546
 21
3.835194614537681
 31
0.0
  0
LINE
  5
87
330
1F
100
AcDbEntity
  8
0
100
AcDbLine
 10
25.99012715826546
 20
3.835194614537681
 30
0.0
 11
26.1778010923669
 21
0.4882189959563764
 31
0.0
  0
LINE
  5
88
330
1F
100
AcDbEntity
  8
0
100
AcDbLine
 10
-26.49248419342358
 20
0.4776080811402739
 30
0.0
 11
26.1778010923669
 21
0.4882189959563764
 31
0.0
  0
LINE
  5
89
330
1F
100
AcDbEntity
  8
0
100
AcDbLine
 10
-26.30394167166348
 20
3.824734742894822
 30
0.0
 11
-26.49248419342358
 21
0.4776080811402739
 31
0.0
  0
LINE
  5
8A
330
1F
100
AcDbEntity
  8
0
100
AcDbLine
 10
-29.72244913956783
 20
10.24217904198937
 30
0.0
 11
-28.81030887549018
 21
8.529850081869192
 31
0.0
  0
LINE
  5
8B
330
1F
100
AcDbEntity
  8
0
100
AcDbLine
 10
-29.72244913956783
 20
10.24217904198937
 30
0.0
 11
-27.68462595087207
 21
10.24258102487446
 31
0.0
  0
LINE
  5
8C
330
1F
100
AcDbEntity
  8
0
100
AcDbLine
 10
29.41012008417232
 20
10.25384358723092
 30
0.0
 11
25.99012715826546
 21
3.835194614537681
 31
0.0
  0
LINE
  5
8D
330
1F
100
AcDbEntity
  8
0
100
AcDbLine
 10
-27.68462595087207
 20
10.24258102487446
 30
0.0
 11
-27.68057444207207
 21
10.06649576180956
 31
0.0
  0
LINE
  5
8E
330
1F
100
AcDbEntity
  8
0
100
AcDbLine
 10
-27.68057444207207
 20
10.06649576180956
 30
0.0
 11
-27.69660072599821
 21
9.889780229451699
 31
0.0
  0
LINE
  5
8F
330
1F
100
AcDbEntity
  8
0
100
AcDbLine
 10
-27.69660072599821
 20
9.889780229451699
 30
0.0
 11
-27.73253478279223
 21
9.714563219815894
 31
0.0
  0
LINE
  5
90
330
1F
100
AcDbEntity
  8
0
100
AcDbLine
 10
-27.73253478279223
 20
9.714563219815894
 30
0.0
 11
-27.78796580074623
 21
9.542960308310589
 31
0.0
  0
LINE
  5
91
330
1F
100
AcDbEntity
  8
0
100
AcDbLine
 10
-27.78796580074623
 20
9.542960308310589
 30
0.0
 11
-27.8622460699035
 21
9.37704810381096
 31
0.0
  0
LINE
  5
92
330
1F
100
AcDbEntity
  8
0
100
AcDbLine
 10
-27.8622460699035
 20
9.37704810381096
 30
0.0
 11
-27.95449782890489
 21
9.218838747935266
 31
0.0
  0
LINE
  5
93
330
1F
100
AcDbEntity
  8
0
100
AcDbLine
 10
-27.95449782890489
 20
9.218838747935266
 30
0.0
 11
-28.0636230290666
 21
9.070254993744914
 31
0.0
  0
LINE
  5
94
330
1F
100
AcDbEntity
  8
0
100
AcDbLine
 10
-28.0636230290666
 20
9.070254993744914
 30
0.0
 11
-28.18831593766974
 21
8.933106196814276
 31
0.0
  0
LINE
  5
95
330
1F
100
AcDbEntity
  8
0
100
AcDbLine
 10
-28.18831593766974
 20
8.933106196814276
 30
0.0
 11
-28.327078459379
 21
8.809065548807075
 31
0.0
  0
LINE
  5
96
330
1F
100
AcDbEntity
  8
0
100
AcDbLine
 10
-28.327078459379
 20
8.809065548807075
 30
0.0
 11
-28.47823801151775
 21
8.699648874961948
 31
0.0
  0
LINE
  5
97
330
1F
100
AcDbEntity
  8
0
100
AcDbLine
 10
-28.47823801151775
 20
8.699648874961948
 30
0.0
 11
-28.63996774663597
 21
8.606195301998904
 31
0.0
  0
LINE
  5
98
330
1F
100
AcDbEntity
  8
0
100
AcDbLine
 10
-28.63996774663597
 20
8.606195301998904
 30
0.0
 11
-28.81030887549018
 21
8.529850081869192
 31
0.0
  0
LINE
  5
99
330
1F
100
AcDbEntity
  8
0
100
AcDbLine
 10
-28.81030887549018
 20
8.529850081869192
 30
0.0
 11
-26.30394167166348
 21
3.824734742894822
 31
0.0
  0
LINE
  5
9A
330
1F
100
AcDbEntity
  8
0
100
AcDbLine
 10
-27.68462595087207
 20
10.24258102487446
 30
0.0
 11
29.41012008417232
 21
10.25384358723092
 31
0.0
  0
LINE
  5
9B
330
1F
100
AcDbEntity
  8
0
100
AcDbLine
 10
-19.66973448328278
 20
-5.003559493851917
 30
0.0
 11
-21.60098922399017
 21
-5.003953115065454
 31
0.0
  0
LINE
  5
9C
330
1F
100
AcDbEntity
  8
0
100
AcDbLine
 10
-19.70493805870972
 20
-5.856222267605995
 30
0.0
 11
-19.64676203483847
 21
-5.871734796013878
 31
0.0
  0
LINE
  5
9D
330
1F
100
AcDbEntity
  8
0
100
AcDbLine
 10
-21.60098922399017
 20
-5.003953115065454
 30
0.0
 11
-21.53732948582333
 21
-5.021949589042566
 31
0.0
  0
LINE
  5
9E
330
1F
100
AcDbEntity
  8
0
100
AcDbLine
 10
-19.67047803845771
 20
-5.021569079816082
 30
0.0
 11
-21.53732948582333
 21
-5.021949589042566
 31
0.0
  0
LINE
  5
9F
330
1F
100
AcDbEntity
  8
0
100
AcDbLine
 10
-22.14693138657921
 20
-3.979075020798748
 30
0.0
 11
-21.7770582428709
 21
-3.841038263197544
 31
0.0
  0
LINE
  5
A0
330
1F
100
AcDbEntity
  8
0
100
AcDbLine
 10
-21.7770582428709
 20
-3.841038263197544
 30
0.0
 11
-21.39304336428653
 21
-3.760273090143393
 31
0.0
  0
LINE
  5
A1
330
1F
100
AcDbEntity
  8
0
100
AcDbLine
 10
-21.39304336428653
 20
-3.760273090143393
 30
0.0
 11
-21.00385206782629
 21
-3.738634445925967
 31
0.0
  0
LINE
  5
A2
330
1F
100
AcDbEntity
  8
0
100
AcDbLine
 10
-21.00385206782629
 20
-3.738634445925967
 30
0.0
 11
-20.61856267278945
 21
-3.776618982618919
 31
0.0
  0
LINE
  5
A3
330
1F
100
AcDbEntity
  8
0
100
AcDbLine
 10
-20.61856267278945
 20
-3.776618982618919
 30
0.0
 11
-20.24616487164044
 21
-3.873354784583873
 31
0.0
  0
LINE
  5
A4
330
1F
100
AcDbEntity
  8
0
100
AcDbLine
 10
-20.24616487164044
 20
-3.873354784583873
 30
0.0
 11
-19.89535984744973
 21
-4.026619416418228
 31
0.0
  0
LINE
  5
A5
330
1F
100
AcDbEntity
  8
0
100
AcDbLine
 10
-19.89535984744973
 20
-4.026619416418228
 30
0.0
 11
-19.57436566860968
 21
-4.232886102583457
 31
0.0
  0
LINE
  5
A6
330
1F
100
AcDbEntity
  8
0
100
AcDbLine
 10
-19.57436566860968
 20
-4.232886102583457
 30
0.0
 11
-19.29073150457871
 21
-4.487397530938795
 31
0.0
  0
LINE
  5
A7
330
1F
100
AcDbEntity
  8
0
100
AcDbLine
 10
-19.29073150457871
 20
-4.487397530938795
 30
0.0
 11
-19.05116423082809
 21
-4.784266418268111
 31
0.0
  0
LINE
  5
A8
330
1F
100
AcDbEntity
  8
0
100
AcDbLine
 10
-19.05116423082809
 20
-4.784266418268111
 30
0.0
 11
-18.86137100726884
 21
-5.11660156563684
 31
0.0
  0
LINE
  5
A9
330
1F
100
AcDbEntity
  8
0
100
AcDbLine
 10
-18.86137100726884
 20
-5.11660156563684
 30
0.0
 11
-18.72592139606449
 21
-5.47665765417705
 31
0.0
  0
LINE
  5
AA
330
1F
100
AcDbEntity
  8
0
100
AcDbLine
 10
-18.72592139606449
 20
-5.47665765417705
 30
0.0
 11
-18.64813250161864
 21
-5.856006485995588
 31
0.0
  0
LINE
  5
AB
330
1F
100
AcDbEntity
  8
0
100
AcDbLine
 10
-18.64813250161864
 20
-5.856006485995588
 30
0.0
 11
-19.70493805870972
 21
-5.856222267605995
 31
0.0
  0
LINE
  5
AC
330
1F
100
AcDbEntity
  8
0
100
AcDbLine
 10
-22.14693138657921
 20
-3.979075020798748
 30
0.0
 11
-21.60098922399017
 21
-5.003953115065454
 31
0.0
  0
LINE
  5
AD
330
1F
100
AcDbEntity
  8
0
100
AcDbLine
 10
3.421825047775459
 20
-2.28823966273008
 30
0.0
 11
3.62156948080769
 21
-1.801897497560746
 31
0.0
  0
LINE
  5
AE
330
1F
100
AcDbEntity
  8
0
100
AcDbLine
 10
3.62156948080769
 20
-1.801897497560746
 30
0.0
 11
3.63220114594614
 21
-1.774570665136957
 31
0.0
  0
LINE
  5
AF
330
1F
100
AcDbEntity
  8
0
100
AcDbLine
 10
-23.77075979280701
 20
-0.930718846037295
 30
0.0
 11
-23.75490991402539
 21
-0.9604732681596586
 31
0.0
  0
LINE
  5
B0
330
1F
100
AcDbEntity
  8
0
100
AcDbLine
 10
-23.75490991402539
 20
-0.9604732681596586
 30
0.0
 11
-22.14693138657921
 21
-3.979075020798748
 31
0.0
  0
LINE
  5
B1
330
1F
100
AcDbEntity
  8
0
100
AcDbLine
 10
23.4558315532134
 20
-0.9211760079410666
 30
0.0
 11
23.43997467118978
 21
-0.9509362330982791
 31
0.0
  0
LINE
  5
B2
330
1F
100
AcDbEntity
  8
0
100
AcDbLine
 10
23.43997467118978
 20
-0.9509362330982791
 30
0.0
 11
21.13791891895964
 21
-5.271438675429062
 31
0.0
  0
LINE
  5
B3
330
1F
100
AcDbEntity
  8
0
100
AcDbLine
 10
-19.70493805870972
 20
-5.856222267605995
 30
0.0
 11
-19.67047803845771
 21
-5.021569079816082
 31
0.0
  0
LINE
  5
B4
330
1F
100
AcDbEntity
  8
0
100
AcDbLine
 10
-19.67047803845771
 20
-5.021569079816082
 30
0.0
 11
-19.66973448328278
 21
-5.003559493851917
 31
0.0
  0
LINE
  5
B5
330
1F
100
AcDbEntity
  8
0
100
AcDbLine
 10
3.421825047775459
 20
-2.28823966273008
 30
0.0
 11
3.352720378708938
 21
-2.84069069165878
 31
0.0
  0
LINE
  5
B6
330
1F
100
AcDbEntity
  8
0
100
AcDbLine
 10
-21.08440419901768
 20
-5.872028347537784
 30
0.0
 11
-21.14683726357066
 21
-5.856516678749447
 31
0.0
  0
LINE
  5
B7
330
1F
100
AcDbEntity
  8
0
 62
   250
100
AcDbLine
 10
-29.70896102682523
 20
10.45107667304256
 30
0.0
 11
-29.63799647946099
 21
11.55014265180803
 31
0.0
  0
LINE
  5
B8
330
1F
100
AcDbEntity
  8
0
 62
   250
100
AcDbLine
 10
29.39668613058945
 20
10.46273378113704
 30
0.0
 11
29.32600780501256
 21
11.56174078928694
 31
0.0
  0
LINE
  5
B9
330
1F
100
AcDbEntity
  8
0
 62
   250
100
AcDbLine
 10
-29.64875046476874
 20
11.38358991770503
 30
0.0
 11
-1.62415015870558
 21
11.38910432420937
 31
0.0
  0
LINE
  5
BA
330
1F
100
AcDbEntity
  8
0
 62
   250
100
AcDbLine
 10
1.312866064875307
 20
11.38968224151023
 30
0.0
 11
29.33671844776019
 21
11.39519650084553
 31
0.0
  0
LINE
  5
BB
330
1F
100
AcDbEntity
  8
0
 62
   250
100
AcDbLine
 10
-21.36431154718336
 20
-5.856561083276682
 30
0.0
 11
-32.03216642554904
 21
-5.858739276691545
 31
0.0
  0
LINE
  5
BC
330
1F
100
AcDbEntity
  8
0
 62
   250
100
AcDbLine
 10
-29.93694468512676
 20
10.24213673039987
 30
0.0
 11
-30.94951875087186
 21
10.24193698910408
 31
0.0
  0
LINE
  5
BD
330
1F
100
AcDbEntity
  8
0
 62
   250
100
AcDbLine
 10
-31.85636710256425
 20
-5.858703381478117
 30
0.0
 11
-31.34484441867361
 21
1.790552116443274
 31
0.0
  0
LINE
  5
BE
330
1F
100
AcDbEntity
  8
0
 62
   250
100
AcDbLine
 10
-31.27263678481691
 20
2.870337349170756
 30
0.0
 11
-30.77967932368981
 21
10.24197049178641
 31
0.0
  0
LINE
  5
BF
330
1F
100
AcDbEntity
  8
0
 62
   250
100
AcDbLine
 10
29.62466096280949
 20
10.25388590776287
 30
0.0
 11
30.69518491483133
 21
10.25409708030678
 31
0.0
  0
LINE
  5
C0
330
1F
100
AcDbEntity
  8
0
 62
   250
100
AcDbLine
 10
21.35533570232541
 20
-5.271394336525329
 30
0.0
 11
31.73698872213303
 21
-5.269277153542792
 31
0.0
  0
LINE
  5
C1
330
1F
100
AcDbEntity
  8
0
 62
   250
100
AcDbLine
 10
30.52524849622687
 20
10.25406355849183
 30
0.0
 11
30.99862481596348
 21
3.161386430475197
 31
0.0
  0
LINE
  5
C2
330
1F
100
AcDbEntity
  8
0
 62
   250
100
AcDbLine
 10
31.07069136437283
 20
2.081601197698146
 30
0.0
 11
31.56130282719638
 21
-5.26931298205549
 31
0.0
  0
LINE
  5
C3
330
1F
100
AcDbEntity
  8
0
 62
   250
100
AcDbLine
 10
21.14757363974356
 20
-5.487105552290196
 30
0.0
 11
21.21318462391215
 21
-6.95272184095587
 31
0.0
  0
LINE
  5
C4
330
1F
100
AcDbEntity
  8
0
 62
   250
100
AcDbLine
 10
8.136152658381775
 20
-5.489759518811871
 30
0.0
 11
8.161579479645207
 21
-6.95539295507204
 31
0.0
  0
LINE
  5
C5
330
1F
100
AcDbEntity
  8
0
 62
   250
100
AcDbLine
 10
21.20542717277285
 20
-6.779436119176967
 30
0.0
 11
16.15052657450402
 21
-6.780470267924235
 31
0.0
  0
LINE
  5
C6
330
1F
100
AcDbEntity
  8
0
 62
   250
100
AcDbLine
 10
13.21351035537139
 20
-6.781071132685978
 30
0.0
 11
8.158573165511388
 21
-6.782105288919292
 31
0.0
  0
LINE
  5
C7
330
1F
100
AcDbEntity
  8
0
 62
   250
100
AcDbLine
 10
2.934022371013008
 20
-6.067509782873048
 30
0.0
 11
2.944113816768011
 21
-7.649511400806488
 31
0.0
  0
LINE
  5
C8
330
1F
100
AcDbEntity
  8
0
 62
   250
100
AcDbLine
 10
-21.1564070944185
 20
-6.072429528981632
 30
0.0
 11
-21.22652712134181
 21
-7.654465315410506
 31
0.0
  0
LINE
  5
C9
330
1F
100
AcDbEntity
  8
0
 62
   250
100
AcDbLine
 10
2.943006827392034
 20
-7.475972442529956
 30
0.0
 11
-7.863704723947193
 21
-7.478186535151075
 31
0.0
  0
LINE
  5
CA
330
1F
100
AcDbEntity
  8
0
 62
   250
100
AcDbLine
 10
-10.41199820804985
 20
-7.478708632717281
 30
0.0
 11
-21.218835254072
 21
-7.480922751049935
 31
0.0
  0
LINE
  5
CB
330
1F
100
AcDbEntity
  8
0
 62
   250
100
AcDbLine
 10
10.91353473774513
 20
-1.048396827731841
 30
0.0
 11
7.530877103139689
 21
-2.16841746680764
 31
0.0
  0
LINE
  5
CC
330
1F
100
AcDbEntity
  8
0
 62
   250
100
AcDbLine
 10
10.91353473774513
 20
-1.048396827731841
 30
0.0
 11
11.6045973644746
 21
-1.048396827731849
 31
0.0
  0
LINE
  5
CD
330
1F
100
AcDbEntity
  8
0
 62
   250
100
AcDbLine
 10
25.77448104815499
 20
3.835151480953275
 30
0.0
 11
24.20578575907101
 21
3.834837710161713
 31
0.0
  0
LINE
  5
CE
330
1F
100
AcDbEntity
  8
0
 62
   250
100
AcDbLine
 10
25.96153577403824
 20
0.4881754273131104
 30
0.0
 11
24.3806229809077
 21
0.4878569378481556
 31
0.0
  0
LINE
  5
CF
330
1F
100
AcDbEntity
  8
0
 62
   250
100
AcDbLine
 10
24.37793260676269
 20
3.834872143013673
 30
0.0
 11
24.43725258983874
 21
2.707272732837803
 31
0.0
  0
LINE
  5
D0
330
1F
100
AcDbEntity
  8
0
 62
   250
100
AcDbLine
 10
24.49405719717643
 20
1.627487500142153
 30
0.0
 11
24.55400826934554
 21
0.4878918679138644
 31
0.0
  0
LINE
  5
D1
330
1F
100
AcDbEntity
  8
0
 62
   250
100
AcDbLine
 10
29.19476174406529
 20
10.25380110544577
 30
0.0
 11
23.86873120376734
 21
10.25275048774032
 31
0.0
  0
LINE
  5
D2
330
1F
100
AcDbEntity
  8
0
 62
   250
100
AcDbLine
 10
25.77356839244848
 20
3.835151298403679
 30
0.0
 11
24.20396044519515
 21
3.834837345062021
 31
0.0
  0
LINE
  5
D3
330
1F
100
AcDbEntity
  8
0
 62
   250
100
AcDbLine
 10
24.04030344607611
 20
10.25278433223936
 30
0.0
 11
24.17954323791248
 21
7.60600833861804
 31
0.0
  0
LINE
  5
D4
330
1F
100
AcDbEntity
  8
0
 62
   250
100
AcDbLine
 10
24.23634784529655
 20
6.526223105041006
 30
0.0
 11
24.37793260676269
 21
3.834872143013681
 31
0.0
  0
LINE
  5
D5
330
1F
100
AcDbEntity
  8
0
 62
   250
100
AcDbLine
 10
-1.933386554851708
 20
3.829609346919537
 30
0.0
 11
-1.150227058050159
 21
4.897251777620023
 31
0.0
  0
LINE
  5
D6
330
1F
100
AcDbEntity
  8
0
 62
   250
100
AcDbLine
 10
-1.150227058050159
 20
4.897251777620023
 30
0.0
 11
-0.4591644313206944
 21
4.897251777620023
 31
0.0
  0
LINE
  5
D7
330
1F
100
AcDbEntity
  8
0
 62
   250
100
AcDbLine
 10
-1.869202246434665
 20
0.4825686684204585
 30
0.0
 11
-1.218282686657796
 21
1.482415286420326
 31
0.0
  0
LINE
  5
D8
330
1F
100
AcDbEntity
  8
0
 62
   250
100
AcDbLine
 10
-1.218282686657796
 20
1.482415286420326
 30
0.0
 11
-0.5272200599283332
 21
1.482415286420318
 31
0.0
  0
LINE
  5
D9
330
1F
100
AcDbEntity
  8
0
 62
   250
100
AcDbLine
 10
-27.95449782890489
 20
9.218838747935266
 30
0.0
 11
-26.40268128323044
 21
8.04365201954408
 31
0.0
  0
LINE
  5
DA
330
1F
100
AcDbEntity
  8
0
 62
   250
100
AcDbLine
 10
-26.40268128323044
 20
8.04365201954408
 30
0.0
 11
-25.71161865650098
 21
8.04365201954408
 31
0.0
  0
LINE
  5
DB
330
1F
100
AcDbEntity
  8
0
 62
   250
100
AcDbLine
 10
2.716215954292285
 20
-5.851644251633576
 30
0.0
 11
1.118669388369371
 21
-5.851970443304676
 31
0.0
  0
LINE
  5
DC
330
1F
100
AcDbEntity
  8
0
 62
   250
100
AcDbLine
 10
5.261084440557866
 20
-0.7129840465866828
 30
0.0
 11
1.10551891449566
 21
-0.7138233621384664
 31
0.0
  0
LINE
  5
DD
330
1F
100
AcDbEntity
  8
0
 62
   250
100
AcDbLine
 10
1.292379749296883
 20
-5.851934974621554
 30
0.0
 11
1.286403225198439
 21
-3.808781534269113
 31
0.0
  0
LINE
  5
DE
330
1F
100
AcDbEntity
  8
0
 62
   250
100
AcDbLine
 10
1.283244694697941
 20
-2.728996302550503
 30
0.0
 11
1.277349916155828
 21
-0.7137886567701908
 31
0.0
  0
LINE
  5
DF
330
1F
100
AcDbEntity
  8
0
 62
   250
100
AcDbLine
 10
8.348786832174731
 20
-5.274046827788203
 30
0.0
 11
9.785624464355955
 21
-5.273753806226248
 31
0.0
  0
LINE
  5
E0
330
1F
100
AcDbEntity
  8
0
 62
   250
100
AcDbLine
 10
5.692114904927287
 20
-0.7128969897060289
 30
0.0
 11
9.690586894013888
 21
-0.7120894029400993
 31
0.0
  0
LINE
  5
E1
330
1F
100
AcDbEntity
  8
0
 62
   250
100
AcDbLine
 10
9.612020749426815
 20
-5.273789210109445
 30
0.0
 11
9.576161667175292
 21
-3.521829149549819
 31
0.0
  0
LINE
  5
E2
330
1F
100
AcDbEntity
  8
0
 62
   250
100
AcDbLine
 10
9.554060645404487
 20
-2.442043917779947
 30
0.0
 11
9.51865268298263
 21
-0.7121241291539631
 31
0.0
  0
LINE
  5
E3
330
1F
100
AcDbEntity
  8
0
 62
   250
100
AcDbLine
 10
-19.89535984744973
 20
-4.026619416418228
 30
0.0
 11
-19.63904729237738
 21
-3.619496267779702
 31
0.0
  0
LINE
  5
E4
330
1F
100
AcDbEntity
  8
0
 62
   250
100
AcDbLine
 10
-19.63904729237738
 20
-3.619496267779702
 30
0.0
 11
-18.94798466564792
 21
-3.619496267779702
 31
0.0
  0
LINE
  5
E5
330
1F
100
AcDbEntity
  8
0
 62
   250
100
AcDbLine
 10
25.21690043698565
 20
-0.9208201576720676
 30
0.0
 11
24.45509954142844
 21
-0.9209740909202835
 31
0.0
  0
LINE
  5
E6
330
1F
100
AcDbEntity
  8
0
 62
   250
100
AcDbLine
 10
25.96197596458149
 20
0.4881755159935507
 30
0.0
 11
24.38150336319077
 21
0.4878571152092855
 31
0.0
  0
LINE
  5
E7
330
1F
100
AcDbEntity
  8
0
 62
   250
100
AcDbLine
 10
24.62812309251365
 20
-0.9209391289277307
 30
0.0
 11
24.61941236010455
 21
-0.7553588941167361
 31
0.0
  0
LINE
  5
E8
330
1F
100
AcDbEntity
  8
0
 62
   250
100
AcDbLine
 10
24.5626077527894
 20
0.3244263381501863
 30
0.0
 11
24.55400826934554
 21
0.4878918679138617
 31
0.0
  0
LINE
  5
E9
330
1F
100
AcDbEntity
  8
0
 62
   250
100
AcDbLine
 10
24.4817136355787
 20
-0.1849432850342398
 30
0.0
 11
24.32628865709575
 21
-0.0600401448355863
 31
0.0
  0
LINE
  5
EA
330
1F
100
AcDbEntity
  8
0
 62
   250
100
AcDbLine
 10
24.32628865709575
 20
-0.0600401448355863
 30
0.0
 11
23.63522603036628
 21
-0.0600401448355944
 31
0.0
  0
LINE
  5
EB
330
1F
100
AcDbEntity
  8
0
 62
   250
100
AcDbLine
 10
20.92143313270858
 20
-5.27148282446985
 30
0.0
 11
17.50605412954665
 21
-5.272179339975673
 31
0.0
  0
LINE
  5
EC
330
1F
100
AcDbEntity
  8
0
 62
   250
100
AcDbLine
 10
25.96237110470082
 20
0.4881755955981788
 30
0.0
 11
17.29235150505029
 21
0.4864289401751636
 31
0.0
  0
LINE
  5
ED
330
1F
100
AcDbEntity
  8
0
 62
   250
100
AcDbLine
 10
17.67988006706527
 20
-5.272143890773492
 30
0.0
 11
17.59154794558034
 21
-2.915148394144117
 31
0.0
  0
LINE
  5
EE
330
1F
100
AcDbEntity
  8
0
 62
   250
100
AcDbLine
 10
17.55108129198839
 20
-1.835363162265462
 30
0.0
 11
17.46406717673688
 21
0.4864635338811798
 31
0.0
  0
LINE
  5
EF
330
1F
100
AcDbEntity
  8
0
 62
   250
100
AcDbLine
 10
-19.48839482519675
 20
-5.856178053183259
 30
0.0
 11
-8.383558573067248
 21
-5.853910635649621
 31
0.0
  0
LINE
  5
F0
330
1F
100
AcDbEntity
  8
0
 62
   250
100
AcDbLine
 10
-26.27710017473365
 20
0.4776514722375958
 30
0.0
 11
-8.27301884254322
 21
0.4812785604965942
 31
0.0
  0
LINE
  5
F1
330
1F
100
AcDbEntity
  8
0
 62
   250
100
AcDbLine
 10
-8.557492725145396
 20
-5.853946150027066
 30
0.0
 11
-8.510301930574025
 21
-3.204974963539094
 31
0.0
  0
LINE
  5
F2
330
1F
100
AcDbEntity
  8
0
 62
   250
100
AcDbLine
 10
-8.491065812296739
 20
-2.125189731711392
 30
0.0
 11
-8.444632812638543
 21
0.4812439872793086
 31
0.0
  0
POLYLINE
  5
F3
330
1F
100
AcDbEntity
  8
0
 62
   250
100
AcDbPolyFaceMesh
 66
     1
 10
0.0
 20
0.0
 30
0.0
 70
    64
 71
     3
 72
     1
  0
VERTEX
  5
F4
330
F3
100
AcDbEntity
  8
0
100
AcDbVertex
100
AcDbPolyFaceMeshVertex
 10
-29.11988177670169
 20
11.55024245319069
 30
0.0
 70
   192
  0
VERTEX
  5
F5
330
F3
100
AcDbEntity
  8
0
100
AcDbVertex
100
AcDbPolyFaceMeshVertex
 10
-29.14101994689902
 20
11.21702005287447
 30
0.0
 70
   192
  0
VERTEX
  5
F6
330
F3
100
AcDbEntity
  8
0
100
AcDbVertex
100
AcDbPolyFaceMeshVertex
 10
-29.64875046476874
 20
11.38358991770503
 30
0.0
 70
   192
  0
VERTEX
  5
F7
330
F3
100
AcDbEntity
  8
0
 62
   250
100
AcDbFaceRecord
 10
0.0
 20
0.0
 30
0.0
 70
   128
 71
     1
 72
     2
 73
     3
  0
SEQEND
  5
F8
330
F3
100
AcDbEntity
  8
0
 62
   250
  0
POLYLINE
  5
F9
330
1F
100
AcDbEntity
  8
0
 62
   250
100
AcDbPolyFaceMesh
 66
     1
 10
0.0
 20
0.0
 30
0.0
 70
    64
 71
     3
 72
     1
  0
VERTEX
  5
FA
330
F9
100
AcDbEntity
  8
0
100
AcDbVertex
100
AcDbPolyFaceMeshVertex
 10
29.33671844776019
 20
11.39519650084553
 30
0.0
 70
   192
  0
VERTEX
  5
FB
330
F9
100
AcDbEntity
  8
0
100
AcDbVertex
100
AcDbPolyFaceMeshVertex
 10
28.828957750241
 20
11.22842674328919
 30
0.0
 70
   192
  0
VERTEX
  5
FC
330
F9
100
AcDbEntity
  8
0
100
AcDbVertex
100
AcDbPolyFaceMeshVertex
 10
28.80790573359488
 20
11.56164099033626
 30
0.0
 70
   192
  0
VERTEX
  5
FD
330
F9
100
AcDbEntity
  8
0
 62
   250
100
AcDbFaceRecord
 10
0.0
 20
0.0
 30
0.0
 70
   128
 71
     1
 72
     2
 73
     3
  0
SEQEND
  5
FE
330
F9
100
AcDbEntity
  8
0
 62
   250
  0
POLYLINE
  5
FF
330
1F
100
AcDbEntity
  8
0
 62
   250
100
AcDbPolyFaceMesh
 66
     1
 10
0.0
 20
0.0
 30
0.0
 70
    64
 71
     3
 72
     1
  0
VERTEX
  5
100
330
FF
100
AcDbEntity
  8
0
100
AcDbVertex
100
AcDbPolyFaceMeshVertex
 10
-31.64914120477137
 20
-5.340570131910117
 30
0.0
 70
   192
  0
VERTEX
  5
101
330
FF
100
AcDbEntity
  8
0
100
AcDbVertex
100
AcDbPolyFaceMeshVertex
 10
-31.85636710256425
 20
-5.858703381478117
 30
0.0
 70
   192
  0
VERTEX
  5
102
330
FF
100
AcDbEntity
  8
0
100
AcDbVertex
100
AcDbPolyFaceMeshVertex
 10
-31.99430029408182
 20
-5.340640530609174
 30
0.0
 70
   192
  0
VERTEX
  5
103
330
FF
100
AcDbEntity
  8
0
 62
   250
100
AcDbFaceRecord
 10
0.0
 20
0.0
 30
0.0
 70
   128
 71
     1
 72
     2
 73
     3
  0
SEQEND
  5
104
330
FF
100
AcDbEntity
  8
0
 62
   250
  0
POLYLINE
  5
105
330
1F
100
AcDbEntity
  8
0
 62
   250
100
AcDbPolyFaceMesh
 66
     1
 10
0.0
 20
0.0
 30
0.0
 70
    64
 71
     3
 72
     1
  0
VERTEX
  5
106
330
105
100
AcDbEntity
  8
0
100
AcDbVertex
100
AcDbPolyFaceMeshVertex
 10
-30.64026750976725
 20
9.740376318530942
 30
0.0
 70
   192
  0
VERTEX
  5
107
330
105
100
AcDbEntity
  8
0
100
AcDbVertex
100
AcDbPolyFaceMeshVertex
 10
-30.98618116152097
 20
9.740308008685002
 30
0.0
 70
   192
  0
VERTEX
  5
108
330
105
100
AcDbEntity
  8
0
100
AcDbVertex
100
AcDbPolyFaceMeshVertex
 10
-30.77967932368981
 20
10.24197049178641
 30
0.0
 70
   192
  0
VERTEX
  5
109
330
105
100
AcDbEntity
  8
0
 62
   250
100
AcDbFaceRecord
 10
0.0
 20
0.0
 30
0.0
 70
   128
 71
     1
 72
     2
 73
     3
  0
SEQEND
  5
10A
330
105
100
AcDbEntity
  8
0
 62
   250
  0
POLYLINE
  5
10B
330
1F
100
AcDbEntity
  8
0
 62
   250
100
AcDbPolyFaceMesh
 66
     1
 10
0.0
 20
0.0
 30
0.0
 70
    64
 71
     3
 72
     1
  0
VERTEX
  5
10C
330
10B
100
AcDbEntity
  8
0
100
AcDbVertex
100
AcDbPolyFaceMeshVertex
 10
30.73167931934158
 20
9.752482605468021
 30
0.0
 70
   192
  0
VERTEX
  5
10D
330
10B
100
AcDbEntity
  8
0
100
AcDbVertex
100
AcDbPolyFaceMeshVertex
 10
30.38577479460416
 20
9.752414297422487
 30
0.0
 70
   192
  0
VERTEX
  5
10E
330
10B
100
AcDbEntity
  8
0
100
AcDbVertex
100
AcDbPolyFaceMeshVertex
 10
30.52524849622687
 20
10.25406355849183
 30
0.0
 70
   192
  0
VERTEX
  5
10F
330
10B
100
AcDbEntity
  8
0
 62
   250
100
AcDbFaceRecord
 10
0.0
 20
0.0
 30
0.0
 70
   128
 71
     1
 72
     2
 73
     3
  0
SEQEND
  5
110
330
10B
100
AcDbEntity
  8
0
 62
   250
  0
POLYLINE
  5
111
330
1F
100
AcDbEntity
  8
0
 62
   250
100
AcDbPolyFaceMesh
 66
     1
 10
0.0
 20
0.0
 30
0.0
 70
    64
 71
     3
 72
     1
  0
VERTEX
  5
112
330
111
100
AcDbEntity
  8
0
100
AcDbVertex
100
AcDbPolyFaceMeshVertex
 10
31.69934190035547
 20
-4.751822740189461
 30
0.0
 70
   192
  0
VERTEX
  5
113
330
111
100
AcDbEntity
  8
0
100
AcDbVertex
100
AcDbPolyFaceMeshVertex
 10
31.56130282719638
 20
-5.26931298205549
 30
0.0
 70
   192
  0
VERTEX
  5
114
330
111
100
AcDbEntity
  8
0
100
AcDbVertex
100
AcDbPolyFaceMeshVertex
 10
31.35419221145014
 20
-4.751893051523142
 30
0.0
 70
   192
  0
VERTEX
  5
115
330
111
100
AcDbEntity
  8
0
 62
   250
100
AcDbFaceRecord
 10
0.0
 20
0.0
 30
0.0
 70
   128
 71
     1
 72
     2
 73
     3
  0
SEQEND
  5
116
330
111
100
AcDbEntity
  8
0
 62
   250
  0
POLYLINE
  5
117
330
1F
100
AcDbEntity
  8
0
 62
   250
100
AcDbPolyFaceMesh
 66
     1
 10
0.0
 20
0.0
 30
0.0
 70
    64
 71
     3
 72
     1
  0
VERTEX
  5
118
330
117
100
AcDbEntity
  8
0
100
AcDbVertex
100
AcDbPolyFaceMeshVertex
 10
21.20542717277285
 20
-6.779436119176967
 30
0.0
 70
   192
  0
VERTEX
  5
119
330
117
100
AcDbEntity
  8
0
100
AcDbVertex
100
AcDbPolyFaceMeshVertex
 10
20.69470355551175
 20
-6.952828438386932
 30
0.0
 70
   192
  0
VERTEX
  5
11A
330
117
100
AcDbEntity
  8
0
100
AcDbVertex
100
AcDbPolyFaceMeshVertex
 10
20.67957159946495
 20
-6.606381984689988
 30
0.0
 70
   192
  0
VERTEX
  5
11B
330
117
100
AcDbEntity
  8
0
 62
   250
100
AcDbFaceRecord
 10
0.0
 20
0.0
 30
0.0
 70
   128
 71
     1
 72
     2
 73
     3
  0
SEQEND
  5
11C
330
117
100
AcDbEntity
  8
0
 62
   250
  0
POLYLINE
  5
11D
330
1F
100
AcDbEntity
  8
0
 62
   250
100
AcDbPolyFaceMesh
 66
     1
 10
0.0
 20
0.0
 30
0.0
 70
    64
 71
     3
 72
     1
  0
VERTEX
  5
11E
330
11D
100
AcDbEntity
  8
0
100
AcDbVertex
100
AcDbPolyFaceMeshVertex
 10
8.68006323958489
 20
-6.955286357087625
 30
0.0
 70
   192
  0
VERTEX
  5
11F
330
11D
100
AcDbEntity
  8
0
100
AcDbVertex
100
AcDbPolyFaceMeshVertex
 10
8.158573165511388
 20
-6.782105288919292
 30
0.0
 70
   192
  0
VERTEX
  5
120
330
11D
100
AcDbEntity
  8
0
100
AcDbVertex
100
AcDbPolyFaceMeshVertex
 10
8.673675468339141
 20
-6.608838268875037
 30
0.0
 70
   192
  0
VERTEX
  5
121
330
11D
100
AcDbEntity
  8
0
 62
   250
100
AcDbFaceRecord
 10
0.0
 20
0.0
 30
0.0
 70
   128
 71
     1
 72
     2
 73
     3
  0
SEQEND
  5
122
330
11D
100
AcDbEntity
  8
0
 62
   250
  0
POLYLINE
  5
123
330
1F
100
AcDbEntity
  8
0
 62
   250
100
AcDbPolyFaceMesh
 66
     1
 10
0.0
 20
0.0
 30
0.0
 70
    64
 71
     3
 72
     1
  0
VERTEX
  5
124
330
123
100
AcDbEntity
  8
0
100
AcDbVertex
100
AcDbPolyFaceMeshVertex
 10
2.943006827392034
 20
-7.475972442529956
 30
0.0
 70
   192
  0
VERTEX
  5
125
330
123
100
AcDbEntity
  8
0
100
AcDbVertex
100
AcDbPolyFaceMeshVertex
 10
2.425628659955934
 20
-7.649618569057071
 30
0.0
 70
   192
  0
VERTEX
  5
126
330
123
100
AcDbEntity
  8
0
100
AcDbVertex
100
AcDbPolyFaceMeshVertex
 10
2.423792825211245
 20
-7.302664995752131
 30
0.0
 70
   192
  0
VERTEX
  5
127
330
123
100
AcDbEntity
  8
0
 62
   250
100
AcDbFaceRecord
 10
0.0
 20
0.0
 30
0.0
 70
   128
 71
     1
 72
     2
 73
     3
  0
SEQEND
  5
128
330
123
100
AcDbEntity
  8
0
 62
   250
  0
POLYLINE
  5
129
330
1F
100
AcDbEntity
  8
0
 62
   250
100
AcDbPolyFaceMesh
 66
     1
 10
0.0
 20
0.0
 30
0.0
 70
    64
 71
     3
 72
     1
  0
VERTEX
  5
12A
330
129
100
AcDbEntity
  8
0
100
AcDbVertex
100
AcDbPolyFaceMeshVertex
 10
-20.69303606284264
 20
-7.307401277913741
 30
0.0
 70
   192
  0
VERTEX
  5
12B
330
129
100
AcDbEntity
  8
0
100
AcDbVertex
100
AcDbPolyFaceMeshVertex
 10
-20.70803676203756
 20
-7.654358146084681
 30
0.0
 70
   192
  0
VERTEX
  5
12C
330
129
100
AcDbEntity
  8
0
100
AcDbVertex
100
AcDbPolyFaceMeshVertex
 10
-21.218835254072
 20
-7.480922751049935
 30
0.0
 70
   192
  0
VERTEX
  5
12D
330
129
100
AcDbEntity
  8
0
 62
   250
100
AcDbFaceRecord
 10
0.0
 20
0.0
 30
0.0
 70
   128
 71
     1
 72
     2
 73
     3
  0
SEQEND
  5
12E
330
129
100
AcDbEntity
  8
0
 62
   250
  0
POLYLINE
  5
12F
330
1F
100
AcDbEntity
  8
0
 62
   250
100
AcDbPolyFaceMesh
 66
     1
 10
0.0
 20
0.0
 30
0.0
 70
    64
 71
     3
 72
     1
  0
VERTEX
  5
130
330
12F
100
AcDbEntity
  8
0
100
AcDbVertex
100
AcDbPolyFaceMeshVertex
 10
8.077223099950173
 20
-2.169211210259489
 30
0.0
 70
   192
  0
VERTEX
  5
131
330
12F
100
AcDbEntity
  8
0
100
AcDbVertex
100
AcDbPolyFaceMeshVertex
 10
7.53087710313969
 20
-2.16841746680764
 30
0.0
 70
   192
  0
VERTEX
  5
132
330
12F
100
AcDbEntity
  8
0
100
AcDbVertex
100
AcDbPolyFaceMeshVertex
 10
7.962933412510782
 20
-1.843793624212981
 30
0.0
 70
   192
  0
VERTEX
  5
133
330
12F
100
AcDbEntity
  8
0
 62
   250
100
AcDbFaceRecord
 10
0.0
 20
0.0
 30
0.0
 70
   128
 71
     1
 72
     2
 73
     3
  0
SEQEND
  5
134
330
12F
100
AcDbEntity
  8
0
 62
   250
  0
POLYLINE
  5
135
330
1F
100
AcDbEntity
  8
0
 62
   250
100
AcDbPolyFaceMesh
 66
     1
 10
0.0
 20
0.0
 30
0.0
 70
    64
 71
     3
 72
     1
  0
VERTEX
  5
136
330
135
100
AcDbEntity
  8
0
100
AcDbVertex
100
AcDbPolyFaceMeshVertex
 10
24.57764313781029
 20
3.326273681548406
 30
0.0
 70
   192
  0
VERTEX
  5
137
330
135
100
AcDbEntity
  8
0
100
AcDbVertex
100
AcDbPolyFaceMeshVertex
 10
24.23173769786663
 20
3.326204417820081
 30
0.0
 70
   192
  0
VERTEX
  5
138
330
135
100
AcDbEntity
  8
0
100
AcDbVertex
100
AcDbPolyFaceMeshVertex
 10
24.37793260676269
 20
3.834872143013673
 30
0.0
 70
   192
  0
VERTEX
  5
139
330
135
100
AcDbEntity
  8
0
 62
   250
100
AcDbFaceRecord
 10
0.0
 20
0.0
 30
0.0
 70
   128
 71
     1
 72
     2
 73
     3
  0
SEQEND
  5
13A
330
135
100
AcDbEntity
  8
0
 62
   250
  0
POLYLINE
  5
13B
330
1F
100
AcDbEntity
  8
0
 62
   250
100
AcDbPolyFaceMesh
 66
     1
 10
0.0
 20
0.0
 30
0.0
 70
    64
 71
     3
 72
     1
  0
VERTEX
  5
13C
330
13B
100
AcDbEntity
  8
0
100
AcDbVertex
100
AcDbPolyFaceMeshVertex
 10
24.69969209609254
 20
0.999101167531831
 30
0.0
 70
   192
  0
VERTEX
  5
13D
330
13B
100
AcDbEntity
  8
0
100
AcDbVertex
100
AcDbPolyFaceMeshVertex
 10
24.55400826934554
 20
0.4878918679138617
 30
0.0
 70
   192
  0
VERTEX
  5
13E
330
13B
100
AcDbEntity
  8
0
100
AcDbVertex
100
AcDbPolyFaceMeshVertex
 10
24.35454136849549
 20
0.999031709588978
 30
0.0
 70
   192
  0
VERTEX
  5
13F
330
13B
100
AcDbEntity
  8
0
 62
   250
100
AcDbFaceRecord
 10
0.0
 20
0.0
 30
0.0
 70
   128
 71
     1
 72
     2
 73
     3
  0
SEQEND
  5
140
330
13B
100
AcDbEntity
  8
0
 62
   250
  0
POLYLINE
  5
141
330
1F
100
AcDbEntity
  8
0
 62
   250
100
AcDbPolyFaceMesh
 66
     1
 10
0.0
 20
0.0
 30
0.0
 70
    64
 71
     3
 72
     1
  0
VERTEX
  5
142
330
141
100
AcDbEntity
  8
0
100
AcDbVertex
100
AcDbPolyFaceMeshVertex
 10
24.23964487838029
 20
9.751201980755779
 30
0.0
 70
   192
  0
VERTEX
  5
143
330
141
100
AcDbEntity
  8
0
100
AcDbVertex
100
AcDbPolyFaceMeshVertex
 10
23.89373938817073
 20
9.75113367251979
 30
0.0
 70
   192
  0
VERTEX
  5
144
330
141
100
AcDbEntity
  8
0
100
AcDbVertex
100
AcDbPolyFaceMeshVertex
 10
24.04030344607611
 20
10.25278433223936
 30
0.0
 70
   192
  0
VERTEX
  5
145
330
141
100
AcDbEntity
  8
0
 62
   250
100
AcDbFaceRecord
 10
0.0
 20
0.0
 30
0.0
 70
   128
 71
     1
 72
     2
 73
     3
  0
SEQEND
  5
146
330
141
100
AcDbEntity
  8
0
 62
   250
  0
POLYLINE
  5
147
330
1F
100
AcDbEntity
  8
0
 62
   250
100
AcDbPolyFaceMesh
 66
     1
 10
0.0
 20
0.0
 30
0.0
 70
    64
 71
     3
 72
     1
  0
VERTEX
  5
148
330
147
100
AcDbEntity
  8
0
100
AcDbVertex
100
AcDbPolyFaceMeshVertex
 10
24.52380852691208
 20
4.342429984960583
 30
0.0
 70
   192
  0
VERTEX
  5
149
330
147
100
AcDbEntity
  8
0
100
AcDbVertex
100
AcDbPolyFaceMeshVertex
 10
24.37793260676269
 20
3.834872143013681
 30
0.0
 70
   192
  0
VERTEX
  5
14A
330
147
100
AcDbEntity
  8
0
100
AcDbVertex
100
AcDbPolyFaceMeshVertex
 10
24.17865777321533
 20
4.342361023140827
 30
0.0
 70
   192
  0
VERTEX
  5
14B
330
147
100
AcDbEntity
  8
0
 62
   250
100
AcDbFaceRecord
 10
0.0
 20
0.0
 30
0.0
 70
   128
 71
     1
 72
     2
 73
     3
  0
SEQEND
  5
14C
330
147
100
AcDbEntity
  8
0
 62
   250
  0
POLYLINE
  5
14D
330
1F
100
AcDbEntity
  8
0
 62
   250
100
AcDbPolyFaceMesh
 66
     1
 10
0.0
 20
0.0
 30
0.0
 70
    64
 71
     3
 72
     1
  0
VERTEX
  5
14E
330
14D
100
AcDbEntity
  8
0
100
AcDbVertex
100
AcDbPolyFaceMeshVertex
 10
-1.637039756602885
 20
4.03894978379111
 30
0.0
 70
   192
  0
VERTEX
  5
14F
330
14D
100
AcDbEntity
  8
0
100
AcDbVertex
100
AcDbPolyFaceMeshVertex
 10
-1.933386554851708
 20
3.829609346919537
 30
0.0
 70
   192
  0
VERTEX
  5
150
330
14D
100
AcDbEntity
  8
0
100
AcDbVertex
100
AcDbPolyFaceMeshVertex
 10
-1.82327788338705
 20
4.174369457163414
 30
0.0
 70
   192
  0
VERTEX
  5
151
330
14D
100
AcDbEntity
  8
0
 62
   250
100
AcDbFaceRecord
 10
0.0
 20
0.0
 30
0.0
 70
   128
 71
     1
 72
     2
 73
     3
  0
SEQEND
  5
152
330
14D
100
AcDbEntity
  8
0
 62
   250
  0
POLYLINE
  5
153
330
1F
100
AcDbEntity
  8
0
 62
   250
100
AcDbPolyFaceMesh
 66
     1
 10
0.0
 20
0.0
 30
0.0
 70
    64
 71
     3
 72
     1
  0
VERTEX
  5
154
330
153
100
AcDbEntity
  8
0
100
AcDbVertex
100
AcDbPolyFaceMeshVertex
 10
-1.584638521032495
 20
0.7086502879078612
 30
0.0
 70
   192
  0
VERTEX
  5
155
330
153
100
AcDbEntity
  8
0
100
AcDbVertex
100
AcDbPolyFaceMeshVertex
 10
-1.869202246434665
 20
0.4825686684204585
 30
0.0
 70
   192
  0
VERTEX
  5
156
330
153
100
AcDbEntity
  8
0
100
AcDbVertex
100
AcDbPolyFaceMeshVertex
 10
-1.777872466024747
 20
0.8338792087925012
 30
0.0
 70
   192
  0
VERTEX
  5
157
330
153
100
AcDbEntity
  8
0
 62
   250
100
AcDbFaceRecord
 10
0.0
 20
0.0
 30
0.0
 70
   128
 71
     1
 72
     2
 73
     3
  0
SEQEND
  5
158
330
153
100
AcDbEntity
  8
0
 62
   250
  0
POLYLINE
  5
159
330
1F
100
AcDbEntity
  8
0
 62
   250
100
AcDbPolyFaceMesh
 66
     1
 10
0.0
 20
0.0
 30
0.0
 70
    64
 71
     3
 72
     1
  0
VERTEX
  5
15A
330
159
100
AcDbEntity
  8
0
100
AcDbVertex
100
AcDbPolyFaceMeshVertex
 10
-27.65640191713272
 20
9.137653147909434
 30
0.0
 70
   192
  0
VERTEX
  5
15B
330
159
100
AcDbEntity
  8
0
100
AcDbVertex
100
AcDbPolyFaceMeshVertex
 10
-27.78810073378022
 20
8.94826497366053
 30
0.0
 70
   192
  0
VERTEX
  5
15C
330
159
100
AcDbEntity
  8
0
100
AcDbVertex
100
AcDbPolyFaceMeshVertex
 10
-27.95449782890489
 20
9.218838747935266
 30
0.0
 70
   192
  0
VERTEX
  5
15D
330
159
100
AcDbEntity
  8
0
 62
   250
100
AcDbFaceRecord
 10
0.0
 20
0.0
 30
0.0
 70
   128
 71
     1
 72
     2
 73
     3
  0
SEQEND
  5
15E
330
159
100
AcDbEntity
  8
0
 62
   250
  0
POLYLINE
  5
15F
330
1F
100
AcDbEntity
  8
0
 62
   250
100
AcDbPolyFaceMesh
 66
     1
 10
0.0
 20
0.0
 30
0.0
 70
    64
 71
     3
 72
     1
  0
VERTEX
  5
160
330
15F
100
AcDbEntity
  8
0
100
AcDbVertex
100
AcDbPolyFaceMeshVertex
 10
1.463441332982838
 20
-5.333809109187646
 30
0.0
 70
   192
  0
VERTEX
  5
161
330
15F
100
AcDbEntity
  8
0
100
AcDbVertex
100
AcDbPolyFaceMeshVertex
 10
1.292379749296883
 20
-5.851934974621554
 30
0.0
 70
   192
  0
VERTEX
  5
162
330
15F
100
AcDbEntity
  8
0
100
AcDbVertex
100
AcDbPolyFaceMeshVertex
 10
1.11828715731316
 20
-5.333879506883425
 30
0.0
 70
   192
  0
VERTEX
  5
163
330
15F
100
AcDbEntity
  8
0
 62
   250
100
AcDbFaceRecord
 10
0.0
 20
0.0
 30
0.0
 70
   128
 71
     1
 72
     2
 73
     3
  0
SEQEND
  5
164
330
15F
100
AcDbEntity
  8
0
 62
   250
  0
POLYLINE
  5
165
330
1F
100
AcDbEntity
  8
0
 62
   250
100
AcDbPolyFaceMesh
 66
     1
 10
0.0
 20
0.0
 30
0.0
 70
    64
 71
     3
 72
     1
  0
VERTEX
  5
166
330
165
100
AcDbEntity
  8
0
100
AcDbVertex
100
AcDbPolyFaceMeshVertex
 10
1.451806716080314
 20
-1.227359748508316
 30
0.0
 70
   192
  0
VERTEX
  5
167
330
165
100
AcDbEntity
  8
0
100
AcDbVertex
100
AcDbPolyFaceMeshVertex
 10
1.105897836945019
 20
-1.227429689436708
 30
0.0
 70
   192
  0
VERTEX
  5
168
330
165
100
AcDbEntity
  8
0
100
AcDbVertex
100
AcDbPolyFaceMeshVertex
 10
1.277349916155828
 20
-0.7137886567701908
 30
0.0
 70
   192
  0
VERTEX
  5
169
330
165
100
AcDbEntity
  8
0
 62
   250
100
AcDbFaceRecord
 10
0.0
 20
0.0
 30
0.0
 70
   128
 71
     1
 72
     2
 73
     3
  0
SEQEND
  5
16A
330
165
100
AcDbEntity
  8
0
 62
   250
  0
POLYLINE
  5
16B
330
1F
100
AcDbEntity
  8
0
 62
   250
100
AcDbPolyFaceMesh
 66
     1
 10
0.0
 20
0.0
 30
0.0
 70
    64
 71
     3
 72
     1
  0
VERTEX
  5
16C
330
16B
100
AcDbEntity
  8
0
100
AcDbVertex
100
AcDbPolyFaceMeshVertex
 10
9.774005847907155
 20
-4.756294084809414
 30
0.0
 70
   192
  0
VERTEX
  5
16D
330
16B
100
AcDbEntity
  8
0
100
AcDbVertex
100
AcDbPolyFaceMeshVertex
 10
9.612020749426815
 20
-5.273789210109445
 30
0.0
 70
   192
  0
VERTEX
  5
16E
330
16B
100
AcDbEntity
  8
0
100
AcDbVertex
100
AcDbPolyFaceMeshVertex
 10
9.428852905458383
 20
-4.756364396806607
 30
0.0
 70
   192
  0
VERTEX
  5
16F
330
16B
100
AcDbEntity
  8
0
 62
   250
100
AcDbFaceRecord
 10
0.0
 20
0.0
 30
0.0
 70
   128
 71
     1
 72
     2
 73
     3
  0
SEQEND
  5
170
330
16B
100
AcDbEntity
  8
0
 62
   250
  0
POLYLINE
  5
171
330
1F
100
AcDbEntity
  8
0
 62
   250
100
AcDbPolyFaceMesh
 66
     1
 10
0.0
 20
0.0
 30
0.0
 70
    64
 71
     3
 72
     1
  0
VERTEX
  5
172
330
171
100
AcDbEntity
  8
0
100
AcDbVertex
100
AcDbPolyFaceMeshVertex
 10
9.70211893721244
 20
-1.225693401217959
 30
0.0
 70
   192
  0
VERTEX
  5
173
330
171
100
AcDbEntity
  8
0
100
AcDbVertex
100
AcDbPolyFaceMeshVertex
 10
9.356211285034059
 20
-1.225763341898536
 30
0.0
 70
   192
  0
VERTEX
  5
174
330
171
100
AcDbEntity
  8
0
100
AcDbVertex
100
AcDbPolyFaceMeshVertex
 10
9.51865268298263
 20
-0.7121241291539634
 30
0.0
 70
   192
  0
VERTEX
  5
175
330
171
100
AcDbEntity
  8
0
 62
   250
100
AcDbFaceRecord
 10
0.0
 20
0.0
 30
0.0
 70
   128
 71
     1
 72
     2
 73
     3
  0
SEQEND
  5
176
330
171
100
AcDbEntity
  8
0
 62
   250
  0
POLYLINE
  5
177
330
1F
100
AcDbEntity
  8
0
 62
   250
100
AcDbPolyFaceMesh
 66
     1
 10
0.0
 20
0.0
 30
0.0
 70
    64
 71
     3
 72
     1
  0
VERTEX
  5
178
330
177
100
AcDbEntity
  8
0
100
AcDbVertex
100
AcDbPolyFaceMeshVertex
 10
-19.64389651134721
 20
-3.843093844738344
 30
0.0
 70
   192
  0
VERTEX
  5
179
330
177
100
AcDbEntity
  8
0
100
AcDbVertex
100
AcDbPolyFaceMeshVertex
 10
-19.89535984744973
 20
-4.026619416418228
 30
0.0
 70
   192
  0
VERTEX
  5
17A
330
177
100
AcDbEntity
  8
0
100
AcDbVertex
100
AcDbPolyFaceMeshVertex
 10
-19.82900071401062
 20
-3.705320382563914
 30
0.0
 70
   192
  0
VERTEX
  5
17B
330
177
100
AcDbEntity
  8
0
 62
   250
100
AcDbFaceRecord
 10
0.0
 20
0.0
 30
0.0
 70
   128
 71
     1
 72
     2
 73
     3
  0
SEQEND
  5
17C
330
177
100
AcDbEntity
  8
0
 62
   250
  0
POLYLINE
  5
17D
330
1F
100
AcDbEntity
  8
0
 62
   250
100
AcDbPolyFaceMesh
 66
     1
 10
0.0
 20
0.0
 30
0.0
 70
    64
 71
     3
 72
     1
  0
VERTEX
  5
17E
330
17D
100
AcDbEntity
  8
0
100
AcDbVertex
100
AcDbPolyFaceMeshVertex
 10
24.77372606215443
 20
-0.4081928358625781
 30
0.0
 70
   192
  0
VERTEX
  5
17F
330
17D
100
AcDbEntity
  8
0
100
AcDbVertex
100
AcDbPolyFaceMeshVertex
 10
24.62812309251365
 20
-0.9209391289277342
 30
0.0
 70
   192
  0
VERTEX
  5
180
330
17D
100
AcDbEntity
  8
0
100
AcDbVertex
100
AcDbPolyFaceMeshVertex
 10
24.42857534554342
 20
-0.4082625026365466
 30
0.0
 70
   192
  0
VERTEX
  5
181
330
17D
100
AcDbEntity
  8
0
 62
   250
100
AcDbFaceRecord
 10
0.0
 20
0.0
 30
0.0
 70
   128
 71
     1
 72
     2
 73
     3
  0
SEQEND
  5
182
330
17D
100
AcDbEntity
  8
0
 62
   250
  0
POLYLINE
  5
183
330
1F
100
AcDbEntity
  8
0
 62
   250
100
AcDbPolyFaceMesh
 66
     1
 10
0.0
 20
0.0
 30
0.0
 70
    64
 71
     3
 72
     1
  0
VERTEX
  5
184
330
183
100
AcDbEntity
  8
0
100
AcDbVertex
100
AcDbPolyFaceMeshVertex
 10
24.75391128763469
 20
-0.0243655376167433
 30
0.0
 70
   192
  0
VERTEX
  5
185
330
183
100
AcDbEntity
  8
0
100
AcDbVertex
100
AcDbPolyFaceMeshVertex
 10
24.40800587390499
 20
-0.0244352996401474
 30
0.0
 70
   192
  0
VERTEX
  5
186
330
183
100
AcDbEntity
  8
0
100
AcDbVertex
100
AcDbPolyFaceMeshVertex
 10
24.55400826934554
 20
0.4878918679138617
 30
0.0
 70
   192
  0
VERTEX
  5
187
330
183
100
AcDbEntity
  8
0
 62
   250
100
AcDbFaceRecord
 10
0.0
 20
0.0
 30
0.0
 70
   128
 71
     1
 72
     2
 73
     3
  0
SEQEND
  5
188
330
183
100
AcDbEntity
  8
0
 62
   250
  0
POLYLINE
  5
189
330
1F
100
AcDbEntity
  8
0
 62
   250
100
AcDbPolyFaceMesh
 66
     1
 10
0.0
 20
0.0
 30
0.0
 70
    64
 71
     3
 72
     1
  0
VERTEX
  5
18A
330
189
100
AcDbEntity
  8
0
100
AcDbVertex
100
AcDbPolyFaceMeshVertex
 10
24.4817136355787
 20
-0.1849432850342398
 30
0.0
 70
   192
  0
VERTEX
  5
18B
330
189
100
AcDbEntity
  8
0
100
AcDbVertex
100
AcDbPolyFaceMeshVertex
 10
24.16652335881863
 20
-0.0793999107796491
 30
0.0
 70
   192
  0
VERTEX
  5
18C
330
189
100
AcDbEntity
  8
0
100
AcDbVertex
100
AcDbPolyFaceMeshVertex
 10
24.30237862086896
 20
0.1069254067453754
 30
0.0
 70
   192
  0
VERTEX
  5
18D
330
189
100
AcDbEntity
  8
0
 62
   250
100
AcDbFaceRecord
 10
0.0
 20
0.0
 30
0.0
 70
   128
 71
     1
 72
     2
 73
     3
  0
SEQEND
  5
18E
330
189
100
AcDbEntity
  8
0
 62
   250
  0
POLYLINE
  5
18F
330
1F
100
AcDbEntity
  8
0
 62
   250
100
AcDbPolyFaceMesh
 66
     1
 10
0.0
 20
0.0
 30
0.0
 70
    64
 71
     3
 72
     1
  0
VERTEX
  5
190
330
18F
100
AcDbEntity
  8
0
100
AcDbVertex
100
AcDbPolyFaceMeshVertex
 10
17.83306336679775
 20
-4.754650560468777
 30
0.0
 70
   192
  0
VERTEX
  5
191
330
18F
100
AcDbEntity
  8
0
100
AcDbVertex
100
AcDbPolyFaceMeshVertex
 10
17.67988006706527
 20
-5.272143890773493
 30
0.0
 70
   192
  0
VERTEX
  5
192
330
18F
100
AcDbEntity
  8
0
100
AcDbVertex
100
AcDbPolyFaceMeshVertex
 10
17.48791162024825
 20
-4.754720872222078
 30
0.0
 70
   192
  0
VERTEX
  5
193
330
18F
100
AcDbEntity
  8
0
 62
   250
100
AcDbFaceRecord
 10
0.0
 20
0.0
 30
0.0
 70
   128
 71
     1
 72
     2
 73
     3
  0
SEQEND
  5
194
330
18F
100
AcDbEntity
  8
0
 62
   250
  0
POLYLINE
  5
195
330
1F
100
AcDbEntity
  8
0
 62
   250
100
AcDbPolyFaceMesh
 66
     1
 10
0.0
 20
0.0
 30
0.0
 70
    64
 71
     3
 72
     1
  0
VERTEX
  5
196
330
195
100
AcDbEntity
  8
0
100
AcDbVertex
100
AcDbPolyFaceMeshVertex
 10
17.65621941798158
 20
-0.0257954331149706
 30
0.0
 70
   192
  0
VERTEX
  5
197
330
195
100
AcDbEntity
  8
0
100
AcDbVertex
100
AcDbPolyFaceMeshVertex
 10
17.31031294870855
 20
-0.0258651953510156
 30
0.0
 70
   192
  0
VERTEX
  5
198
330
195
100
AcDbEntity
  8
0
100
AcDbVertex
100
AcDbPolyFaceMeshVertex
 10
17.46406717673688
 20
0.4864635338811799
 30
0.0
 70
   192
  0
VERTEX
  5
199
330
195
100
AcDbEntity
  8
0
 62
   250
100
AcDbFaceRecord
 10
0.0
 20
0.0
 30
0.0
 70
   128
 71
     1
 72
     2
 73
     3
  0
SEQEND
  5
19A
330
195
100
AcDbEntity
  8
0
 62
   250
  0
POLYLINE
  5
19B
330
1F
100
AcDbEntity
  8
0
 62
   250
100
AcDbPolyFaceMesh
 66
     1
 10
0.0
 20
0.0
 30
0.0
 70
    64
 71
     3
 72
     1
  0
VERTEX
  5
19C
330
19B
100
AcDbEntity
  8
0
100
AcDbVertex
100
AcDbPolyFaceMeshVertex
 10
-8.375685218433427
 20
-5.335818090459562
 30
0.0
 70
   192
  0
VERTEX
  5
19D
330
19B
100
AcDbEntity
  8
0
100
AcDbVertex
100
AcDbPolyFaceMeshVertex
 10
-8.557492725145396
 20
-5.853946150027066
 30
0.0
 70
   192
  0
VERTEX
  5
19E
330
19B
100
AcDbEntity
  8
0
100
AcDbVertex
100
AcDbPolyFaceMeshVertex
 10
-8.720840854150309
 20
-5.335888488453451
 30
0.0
 70
   192
  0
VERTEX
  5
19F
330
19B
100
AcDbEntity
  8
0
 62
   250
100
AcDbFaceRecord
 10
0.0
 20
0.0
 30
0.0
 70
   128
 71
     1
 72
     2
 73
     3
  0
SEQEND
  5
1A0
330
19B
100
AcDbEntity
  8
0
 62
   250
  0
POLYLINE
  5
1A1
330
1F
100
AcDbEntity
  8
0
 62
   250
100
AcDbPolyFaceMesh
 66
     1
 10
0.0
 20
0.0
 30
0.0
 70
    64
 71
     3
 72
     1
  0
VERTEX
  5
1A2
330
1A1
100
AcDbEntity
  8
0
100
AcDbVertex
100
AcDbPolyFaceMeshVertex
 10
-8.280804157514764
 20
-0.0310206857645297
 30
0.0
 70
   192
  0
VERTEX
  5
1A3
330
1A1
100
AcDbEntity
  8
0
100
AcDbVertex
100
AcDbPolyFaceMeshVertex
 10
-8.626714484049119
 20
-0.0310904487776575
 30
0.0
 70
   192
  0
VERTEX
  5
1A4
330
1A1
100
AcDbEntity
  8
0
100
AcDbVertex
100
AcDbPolyFaceMeshVertex
 10
-8.444632812638543
 20
0.4812439872793086
 30
0.0
 70
   192
  0
VERTEX
  5
1A5
330
1A1
100
AcDbEntity
  8
0
 62
   250
100
AcDbFaceRecord
 10
0.0
 20
0.0
 30
0.0
 70
   128
 71
     1
 72
     2
 73
     3
  0
SEQEND
  5
1A6
330
1A1
100
AcDbEntity
  8
0
 62
   250
  0
MTEXT
  5
1A8
330
1F
100
AcDbEntity
  8
0
 62
   250
100
AcDbMText
 10
-1.537767300374016
 20
11.12071309576302
 30
0.0
 40
0.5373603741935365
 41
0.0
 71
     7
 72
     1
  1
53 1/16"
  7
TAHOMA
  0
MTEXT
  5
1A9
330
1F
100
AcDbEntity
  8
0
 62
   250
100
AcDbMText
 10
-32.69086585520581
 20
2.061764545685949
 30
0.0
 40
0.5373603741935361
 41
0.0
 71
     7
 72
     1
  1
14 7/16"
  7
TAHOMA
  0
MTEXT
  5
1AA
330
1F
100
AcDbEntity
  8
0
 62
   250
100
AcDbMText
 10
29.47976718002847
 20
2.352813626965598
 30
0.0
 40
0.5373603741935362
 41
0.0
 71
     7
 72
     1
  1
13 15/16"
  7
TAHOMA
  0
MTEXT
  5
1AB
330
1F
100
AcDbEntity
  8
0
 62
   250
100
AcDbMText
 10
13.29989321147882
 20
-7.049450887401885
 30
0.0
 40
0.5373603741935359
 41
0.0
 71
     7
 72
     1
  1
11 5/16"
  7
TAHOMA
  0
MTEXT
  5
1AC
330
1F
100
AcDbEntity
  8
0
 62
   250
100
AcDbMText
 10
-10.34721106277504
 20
-7.747127771030959
 30
0.0
 40
0.5373603741935359
 41
0.0
 71
     7
 72
     1
  1
20 7/8"
  7
TAHOMA
  0
MTEXT
  5
1AD
330
1F
100
AcDbEntity
  8
0
 62
   250
100
AcDbMText
 10
11.60459736447459
 20
-1.317077014828623
 30
0.0
 40
0.5373603741935363
 41
0.0
 71
     7
 72
     1
  1
R1 7/8"
  7
TAHOMA
  0
MTEXT
  5
1AE
330
1F
100
AcDbEntity
  8
0
 62
   250
100
AcDbMText
 10
24.12012358014415
 20
1.898699929368911
 30
0.0
 40
0.5373603741935362
 41
0.0
 71
     7
 72
     1
  1
3"
  7
TAHOMA
  0
MTEXT
  5
1AF
330
1F
100
AcDbEntity
  8
0
 62
   250
100
AcDbMText
 10
23.25773442985277
 20
6.797435534708456
 30
0.0
 40
0.5373603741935359
 41
0.0
 71
     7
 72
     1
  1
5 7/8"
  7
TAHOMA
  0
MTEXT
  5
1B0
330
1F
100
AcDbEntity
  8
0
 62
   250
100
AcDbMText
 10
-0.1136331179559536
 20
4.628571590523258
 30
0.0
 40
0.5373603741935365
 41
0.0
 71
     7
 72
     1
  1
Bend 120 degrees
  7
TAHOMA
  0
MTEXT
  5
1B1
330
1F
100
AcDbEntity
  8
0
 62
   250
100
AcDbMText
 10
-0.181688746563597
 20
1.213735099323568
 30
0.0
 40
0.5373603741935362
 41
0.0
 71
     7
 72
     1
  1
Bend 150 degrees
  7
TAHOMA
  0
MTEXT
  5
1B2
330
1F
100
AcDbEntity
  8
0
 62
   250
100
AcDbMText
 10
-25.36608734313624
 20
7.774971832447314
 30
0.0
 40
0.5373603741935359
 41
0.0
 71
     7
 72
     1
  1
60 degrees
  7
TAHOMA
  0
MTEXT
  5
1B3
330
1F
100
AcDbEntity
  8
0
 62
   250
100
AcDbMText
 10
0.3346128481952443
 20
-3.537569105530878
 30
0.0
 40
0.5373603741935362
 41
0.0
 71
     7
 72
     1
  1
4 1/2"
  7
TAHOMA
  0
MTEXT
  5
1B4
330
1F
100
AcDbEntity
  8
0
 62
   250
100
AcDbMText
 10
9.219579842925663
 20
-3.250616720785951
 30
0.0
 40
0.5373603741935359
 41
0.0
 71
     7
 72
     1
  1
4"
  7
TAHOMA
  0
MTEXT
  5
1B5
330
1F
100
AcDbEntity
  8
0
 62
   250
100
AcDbMText
 10
-18.60245335228319
 20
-3.888176454876474
 30
0.0
 40
0.5373603741935365
 41
0.0
 71
     7
 72
     1
  1
120 degrees
  7
TAHOMA
  0
MTEXT
  5
1B6
330
1F
100
AcDbEntity
  8
0
 62
   250
100
AcDbMText
 10
24.41824439976588
 20
-0.4841464651043313
 30
0.0
 40
0.5373603741935362
 41
0.0
 71
     7
 72
     1
  1
.
  7
TAHOMA
  0
MTEXT
  5
1B7
330
1F
100
AcDbEntity
  8
0
 62
   250
100
AcDbMText
 10
21.38927249349553
 20
-0.3287203319323579
 30
0.0
 40
0.5373603741935363
 41
0.0
 71
     7
 72
     1
  1
1 1/4"
  7
TAHOMA
  0
MTEXT
  5
1B8
330
1F
100
AcDbEntity
  8
0
 62
   250
100
AcDbMText
 10
-15.59210051558348
 20
8.455985475362695
 30
0.0
 40
0.5373603741935353
 41
0.0
 71
     7
 72
     1
  1
Raskull's Custom Rockers
  7
TAHOMA
  0
MTEXT
  5
1B9
330
1F
100
AcDbEntity
  8
0
 62
   250
100
AcDbMText
 10
-15.59210051558348
 20
7.635348606121461
 30
0.0
 40
0.5373603741935359
 41
0.0
 71
     7
 72
     1
  1
 
  7
TAHOMA
  0
MTEXT
  5
1BA
330
1F
100
AcDbEntity
  8
0
 62
   250
100
AcDbMText
 10
-15.59210051558348
 20
6.814711736880225
 30
0.0
 40
0.5373603741935359
 41
0.0
 71
     7
 72
     1
  1
Material: 3/16" 44W Steel
  7
TAHOMA
  0
MTEXT
  5
1BB
330
1F
100
AcDbEntity
  8
0
 62
   250
100
AcDbMText
 10
-15.59210051558348
 20
5.99407486763899
 30
0.0
 40
0.5373603741935359
 41
0.0
 71
     7
 72
     1
  1
Cut Size: 53 1/16" x 14 7/16"
  7
TAHOMA
  0
MTEXT
  5
1BC
330
1F
100
AcDbEntity
  8
0
 62
   250
100
AcDbMText
 10
-15.59210051558348
 20
5.173437998397755
 30
0.0
 40
0.5373603741935359
 41
0.0
 71
     7
 72
     1
  1
Notes: Form 1 Left, 1 Right
  7
TAHOMA
  0
MTEXT
  5
1BD
330
1F
100
AcDbEntity
  8
0
 62
   250
100
AcDbMText
 10
16.36195502200873
 20
-2.643935965325876
 30
0.0
 40
0.5373603741935363
 41
0.0
 71
     7
 72
     1
  1
5 1/16"
  7
TAHOMA
  0
MTEXT
  5
1BE
330
1F
100
AcDbEntity
  8
0
 62
   250
100
AcDbMText
 10
-9.710043468212374
 20
-2.933762534746321
 30
0.0
 40
0.5373603741935362
 41
0.0
 71
     7
 72
     1
  1
5 9/16"
  7
TAHOMA
  0
ENDSEC
  0
SECTION
  2
OBJECTS
  0
DICTIONARY
  5
C
330
0
100
AcDbDictionary
  3
ACAD_GROUP
350
D
  3
ACAD_LAYOUT
350
1A
  3
ACAD_MLEADERSTYLE
350
1E2
  3
ACAD_MLINESTYLE
350
17
  3
ACAD_PLOTSETTINGS
350
19
  3
ACAD_SCALELIST
350
3B
  3
ACAD_TABLESTYLE
350
1E1
  3
ACAD_VISUALSTYLE
350
2A
  3
ACDBHEADERROUNDTRIPXREC
350
1BF
  3
ACDBVARIABLEDICTIONARY
350
1DF
  0
DICTIONARY
  5
D
102
{ACAD_REACTORS
330
C
102
}
330
C
100
AcDbDictionary
  0
DICTIONARY
  5
1A
102
{ACAD_REACTORS
330
C
102
}
330
C
100
AcDbDictionary
  0
DICTIONARY
  5
1E2
102
{ACAD_REACTORS
330
C
102
}
330
C
100
AcDbDictionary
  0
DICTIONARY
  5
17
102
{ACAD_REACTORS
330
C
102
}
330
C
100
AcDbDictionary
  3
STANDARD
350
18
  0
DICTIONARY
  5
19
102
{ACAD_REACTORS
330
C
102
}
330
C
100
AcDbDictionary
  0
DICTIONARY
  5
3B
102
{ACAD_REACTORS
330
C
102
}
330
C
100
AcDbDictionary
  3
A0
350
3C
  3
A1
350
3D
  3
A2
350
3E
  3
A3
350
3F
  3
A4
350
40
  3
A5
350
41
  3
A6
350
42
  3
A7
350
43
  3
A8
350
44
  3
A9
350
45
  3
B0
350
46
  3
B1
350
47
  3
B2
350
48
  3
B3
350
49
  3
B4
350
4A
  3
B5
350
4B
  3
B6
350
4C
  3
B7
350
4D
  3
B8
350
4E
  3
B9
350
4F
  3
C0
350
50
  3
C1
350
51
  3
C2
350
52
  3
C3
350
53
  3
C4
350
54
  3
C5
350
55
  3
C6
350
56
  3
C7
350
57
  3
C8
350
58
  3
C9
350
59
  3
D0
350
5A
  3
D1
350
5B
  3
D2
350
5C
  0
DICTIONARY
  5
1E1
102
{ACAD_REACTORS
330
C
102
}
330
C
100
AcDbDictionary
  0
DICTIONARY
  5
2A
102
{ACAD_REACTORS
330
C
102
}
330
C
100
AcDbDictionary
  3
2DWIREFRAME
350
2F
  3
3D_HIDDEN
350
31
  3
3DWIREFRAME
350
30
  3
BASIC
350
32
  3
BRIGHTEN
350
36
  3
COLORCHANGE
350
3A
  3
CONCEPTUAL
350
34
  3
DIM
350
35
  3
FACEPATTERN
350
39
  3
FLAT
350
2B
  3
FLATWITHEDGES
350
2C
  3
GOURAUD
350
2D
  3
GOURAUDWITHEDGES
350
2E
  3
LINEPATTERN
350
38
  3
REALISTIC
350
33
  3
THICKEN
350
37
  0
DICTIONARY
  5
1BF
102
{ACAD_REACTORS
330
C
102
}
330
C
100
AcDbDictionary
  3
CEPSNTYPE
350
1C8
  3
DIMSTYLEDATA
350
1DE
  3
FINGERPRINTGUID
350
1C9
  3
HYPERLINKBASE
350
1C2
  3
INSUNITS
350
1C7
  3
LAYOUTDICT
350
1C4
  3
LWETCUNION
350
1C6
  3
PLOTSETDICT
350
1C5
  3
PSVPSCALE
350
1CB
  3
PUCSBASE
350
1CE
  3
PUCSORGBACK
350
1D4
  3
PUCSORGBOTTOM
350
1D0
  3
PUCSORGFRONT
350
1D3
  3
PUCSORGLEFT
350
1D1
  3
PUCSORGRIGHT
350
1D2
  3
PUCSORGTOP
350
1CF
  3
PUCSORTHOREF
350
1CC
  3
PUCSORTHOVIEW
350
1CD
  3
STYLESHEET
350
1C3
  3
TSTACKALIGN
350
1C0
  3
TSTACKSIZE
350
1C1
  3
UCSBASE
350
1D7
  3
UCSORGBACK
350
1DD
  3
UCSORGBOTTOM
350
1D9
  3
UCSORGFRONT
350
1DC
  3
UCSORGLEFT
350
1DA
  3
UCSORGRIGHT
350
1DB
  3
UCSORGTOP
350
1D8
  3
UCSORTHOREF
350
1D5
  3
UCSORTHOVIEW
350
1D6
  3
VERSIONGUID
350
1CA
  0
DICTIONARY
  5
1DF
102
{ACAD_REACTORS
330
C
102
}
330
C
100
AcDbDictionary
  3
CANNOSCALE
350
1E0
  0
MLINESTYLE
  5
18
102
{ACAD_REACTORS
330
17
102
}
330
17
100
AcDbMlineStyle
  2
Standard
 70
     0
  3

 62
   256
 51
90.0
 52
90.0
 71
     2
 49
0.5
 62
   256
  6
BYLAYER
 49
-0.5
 62
   256
  6
BYLAYER
  0
SCALE
  5
3C
102
{ACAD_REACTORS
330
3B
102
}
330
3B
100
AcDbScale
 70
     0
300
1:1
140
1.0
141
1.0
290
     1
  0
SCALE
  5
3D
102
{ACAD_REACTORS
330
3B
102
}
330
3B
100
AcDbScale
 70
     0
300
1:2
140
1.0
141
2.0
290
     0
  0
SCALE
  5
3E
102
{ACAD_REACTORS
330
3B
102
}
330
3B
100
AcDbScale
 70
     0
300
1:4
140
1.0
141
4.0
290
     0
  0
SCALE
  5
3F
102
{ACAD_REACTORS
330
3B
102
}
330
3B
100
AcDbScale
 70
     0
300
1:5
140
1.0
141
5.0
290
     0
  0
SCALE
  5
40
102
{ACAD_REACTORS
330
3B
102
}
330
3B
100
AcDbScale
 70
     0
300
1:8
140
1.0
141
8.0
290
     0
  0
SCALE
  5
41
102
{ACAD_REACTORS
330
3B
102
}
330
3B
100
AcDbScale
 70
     0
300
1:10
140
1.0
141
10.0
290
     0
  0
SCALE
  5
42
102
{ACAD_REACTORS
330
3B
102
}
330
3B
100
AcDbScale
 70
     0
300
1:16
140
1.0
141
16.0
290
     0
  0
SCALE
  5
43
102
{ACAD_REACTORS
330
3B
102
}
330
3B
100
AcDbScale
 70
     0
300
1:20
140
1.0
141
20.0
290
     0
  0
SCALE
  5
44
102
{ACAD_REACTORS
330
3B
102
}
330
3B
100
AcDbScale
 70
     0
300
1:30
140
1.0
141
30.0
290
     0
  0
SCALE
  5
45
102
{ACAD_REACTORS
330
3B
102
}
330
3B
100
AcDbScale
 70
     0
300
1:40
140
1.0
141
40.0
290
     0
  0
SCALE
  5
46
102
{ACAD_REACTORS
330
3B
102
}
330
3B
100
AcDbScale
 70
     0
300
1:50
140
1.0
141
50.0
290
     0
  0
SCALE
  5
47
102
{ACAD_REACTORS
330
3B
102
}
330
3B
100
AcDbScale
 70
     0
300
1:100
140
1.0
141
100.0
290
     0
  0
SCALE
  5
48
102
{ACAD_REACTORS
330
3B
102
}
330
3B
100
AcDbScale
 70
     0
300
2:1
140
2.0
141
1.0
290
     0
  0
SCALE
  5
49
102
{ACAD_REACTORS
330
3B
102
}
330
3B
100
AcDbScale
 70
     0
300
4:1
140
4.0
141
1.0
290
     0
  0
SCALE
  5
4A
102
{ACAD_REACTORS
330
3B
102
}
330
3B
100
AcDbScale
 70
     0
300
8:1
140
8.0
141
1.0
290
     0
  0
SCALE
  5
4B
102
{ACAD_REACTORS
330
3B
102
}
330
3B
100
AcDbScale
 70
     0
300
10:1
140
10.0
141
1.0
290
     0
  0
SCALE
  5
4C
102
{ACAD_REACTORS
330
3B
102
}
330
3B
100
AcDbScale
 70
     0
300
100:1
140
100.0
141
1.0
290
     0
  0
SCALE
  5
4D
102
{ACAD_REACTORS
330
3B
102
}
330
3B
100
AcDbScale
 70
     0
300
1/128" = 1'-0"
140
0.0078125
141
12.0
290
     0
  0
SCALE
  5
4E
102
{ACAD_REACTORS
330
3B
102
}
330
3B
100
AcDbScale
 70
     0
300
1/64" = 1'-0"
140
0.015625
141
12.0
290
     0
  0
SCALE
  5
4F
102
{ACAD_REACTORS
330
3B
102
}
330
3B
100
AcDbScale
 70
     0
300
1/32" = 1'-0"
140
0.03125
141
12.0
290
     0
  0
SCALE
  5
50
102
{ACAD_REACTORS
330
3B
102
}
330
3B
100
AcDbScale
 70
     0
300
1/16" = 1'-0"
140
0.0625
141
12.0
290
     0
  0
SCALE
  5
51
102
{ACAD_REACTORS
330
3B
102
}
330
3B
100
AcDbScale
 70
     0
300
3/32" = 1'-0"
140
0.09375
141
12.0
290
     0
  0
SCALE
  5
52
102
{ACAD_REACTORS
330
3B
102
}
330
3B
100
AcDbScale
 70
     0
300
1/8" = 1'-0"
140
0.125
141
12.0
290
     0
  0
SCALE
  5
53
102
{ACAD_REACTORS
330
3B
102
}
330
3B
100
AcDbScale
 70
     0
300
3/16" = 1'-0"
140
0.1875
141
12.0
290
     0
  0
SCALE
  5
54
102
{ACAD_REACTORS
330
3B
102
}
330
3B
100
AcDbScale
 70
     0
300
1/4" = 1'-0"
140
0.25
141
12.0
290
     0
  0
SCALE
  5
55
102
{ACAD_REACTORS
330
3B
102
}
330
3B
100
AcDbScale
 70
     0
300
3/8" = 1'-0"
140
0.375
141
12.0
290
     0
  0
SCALE
  5
56
102
{ACAD_REACTORS
330
3B
102
}
330
3B
100
AcDbScale
 70
     0
300
1/2" = 1'-0"
140
0.5
141
12.0
290
     0
  0
SCALE
  5
57
102
{ACAD_REACTORS
330
3B
102
}
330
3B
100
AcDbScale
 70
     0
300
3/4" = 1'-0"
140
0.75
141
12.0
290
     0
  0
SCALE
  5
58
102
{ACAD_REACTORS
330
3B
102
}
330
3B
100
AcDbScale
 70
     0
300
1" = 1'-0"
140
1.0
141
12.0
290
     0
  0
SCALE
  5
59
102
{ACAD_REACTORS
330
3B
102
}
330
3B
100
AcDbScale
 70
     0
300
1-1/2" = 1'-0"
140
1.5
141
12.0
290
     0
  0
SCALE
  5
5A
102
{ACAD_REACTORS
330
3B
102
}
330
3B
100
AcDbScale
 70
     0
300
3" = 1'-0"
140
3.0
141
12.0
290
     0
  0
SCALE
  5
5B
102
{ACAD_REACTORS
330
3B
102
}
330
3B
100
AcDbScale
 70
     0
300
6" = 1'-0"
140
6.0
141
12.0
290
     0
  0
SCALE
  5
5C
102
{ACAD_REACTORS
330
3B
102
}
330
3B
100
AcDbScale
 70
     0
300
1'-0" = 1'-0"
140
12.0
141
12.0
290
     0
  0
VISUALSTYLE
  5
2F
102
{ACAD_REACTORS
330
2A
102
}
330
2A
100
AcDbVisualStyle
  2
2dWireframe
 70
     4
 71
     0
 72
     2
 73
     0
 90
        0
 40
-0.6
 41
-30.0
 62
     5
 63
     7
 74
     1
 91
        4
 64
     7
 65
   257
 75
     1
175
     1
 42
1.0
 92
        0
 66
   257
 43
1.0
 76
     1
 77
     6
 78
     2
 67
     7
 79
     5
170
     0
171
     0
290
     0
174
     0
 93
        1
 44
0.0
173
     0
291
     0
 45
0.0
1001
ACAD
1000
AcDbSavedByObjectVersion
1070
     0
  0
VISUALSTYLE
  5
31
102
{ACAD_REACTORS
330
2A
102
}
330
2A
100
AcDbVisualStyle
  2
3D Hidden
 70
     6
 71
     1
 72
     2
 73
     2
 90
        0
 40
-0.6
 41
-30.0
 62
     5
 63
     7
 74
     2
 91
        2
 64
     7
 65
   257
 75
     2
175
     1
 42
40.0
 92
        0
 66
   257
 43
1.0
 76
     1
 77
     6
 78
     2
 67
     7
 79
     3
170
     0
171
     0
290
     0
174
     0
 93
        1
 44
0.0
173
     0
291
     0
 45
0.0
1001
ACAD
1000
AcDbSavedByObjectVersion
1070
     0
  0
VISUALSTYLE
  5
30
102
{ACAD_REACTORS
330
2A
102
}
330
2A
100
AcDbVisualStyle
  2
3dWireframe
 70
     5
 71
     0
 72
     2
 73
     0
 90
        0
 40
-0.6
 41
-30.0
 62
     5
 63
     7
 74
     1
 91
        4
 64
     7
 65
   257
 75
     1
175
     1
 42
1.0
 92
        0
 66
   257
 43
1.0
 76
     1
 77
     6
 78
     2
 67
     7
 79
     5
170
     0
171
     0
290
     0
174
     0
 93
        1
 44
0.0
173
     0
291
     0
 45
0.0
1001
ACAD
1000
AcDbSavedByObjectVersion
1070
     0
  0
VISUALSTYLE
  5
32
102
{ACAD_REACTORS
330
2A
102
}
330
2A
100
AcDbVisualStyle
  2
Basic
 70
     7
 71
     1
 72
     0
 73
     1
 90
        0
 40
-0.6
 41
-30.0
 62
     5
 63
     7
 74
     0
 91
        4
 64
     7
 65
   257
 75
     1
175
     1
 42
1.0
 92
        8
 66
     7
 43
1.0
 76
     1
 77
     6
 78
     2
 67
     7
 79
     5
170
     0
171
     0
290
     0
174
     0
 93
        1
 44
0.0
173
     0
291
     1
 45
0.0
1001
ACAD
1000
AcDbSavedByObjectVersion
1070
     0
  0
VISUALSTYLE
  5
36
102
{ACAD_REACTORS
330
2A
102
}
330
2A
100
AcDbVisualStyle
  2
Brighten
 70
    12
 71
     2
 72
     2
 73
     0
 90
        0
 40
-0.6
 41
-30.0
 62
     5
 63
     7
 74
     1
 91
        4
 64
     7
 65
   257
 75
     1
175
     1
 42
1.0
 92
        8
 66
     7
 43
1.0
 76
     1
 77
     6
 78
     2
 67
     7
 79
     5
170
     0
171
     0
290
     0
174
     0
 93
        1
 44
50.0
173
     0
291
     1
 45
0.0
1001
ACAD
1000
AcDbSavedByObjectVersion
1070
     0
  0
VISUALSTYLE
  5
3A
102
{ACAD_REACTORS
330
2A
102
}
330
2A
100
AcDbVisualStyle
  2
ColorChange
 70
    16
 71
     2
 72
     2
 73
     3
 90
        0
 40
-0.6
 41
-30.0
 62
     5
 63
     8
 74
     1
 91
        4
 64
     7
 65
   257
 75
     1
175
     1
 42
1.0
 92
        8
 66
     8
 43
1.0
 76
     1
 77
     6
 78
     2
 67
     7
 79
     5
170
     0
171
     0
290
     0
174
     0
 93
        1
 44
0.0
173
     0
291
     1
 45
0.0
1001
ACAD
1000
AcDbSavedByObjectVersion
1070
     0
  0
VISUALSTYLE
  5
34
102
{ACAD_REACTORS
330
2A
102
}
330
2A
100
AcDbVisualStyle
  2
Conceptual
 70
     9
 71
     3
 72
     2
 73
     0
 90
        0
 40
-0.6
 41
-30.0
 62
     5
 63
     7
 74
     2
 91
        2
 64
     7
 65
   257
 75
     1
175
     1
 42
40.0
 92
        8
 66
     7
 43
1.0
 76
     1
 77
     6
 78
     2
 67
     7
 79
     3
170
     0
171
     0
290
     0
174
     0
 93
        1
 44
0.0
173
     0
291
     0
 45
0.0
1001
ACAD
1000
AcDbSavedByObjectVersion
1070
     0
  0
VISUALSTYLE
  5
35
102
{ACAD_REACTORS
330
2A
102
}
330
2A
100
AcDbVisualStyle
  2
Dim
 70
    11
 71
     2
 72
     2
 73
     0
 90
        0
 40
-0.6
 41
-30.0
 62
     5
 63
     7
 74
     1
 91
        4
 64
     7
 65
   257
 75
     1
175
     1
 42
1.0
 92
        8
 66
     7
 43
1.0
 76
     1
 77
     6
 78
     2
 67
     7
 79
     5
170
     0
171
     0
290
     0
174
     0
 93
        1
 44
-50.0
173
     0
291
     1
 45
0.0
1001
ACAD
1000
AcDbSavedByObjectVersion
1070
     0
  0
VISUALSTYLE
  5
39
102
{ACAD_REACTORS
330
2A
102
}
330
2A
100
AcDbVisualStyle
  2
Facepattern
 70
    15
 71
     2
 72
     2
 73
     0
 90
        0
 40
-0.6
 41
-30.0
 62
     5
 63
     7
 74
     1
 91
        4
 64
     7
 65
   257
 75
     1
175
     1
 42
1.0
 92
        8
 66
     7
 43
1.0
 76
     1
 77
     6
 78
     2
 67
     7
 79
     5
170
     0
171
     0
290
     0
174
     0
 93
        1
 44
0.0
173
     0
291
     1
 45
0.0
1001
ACAD
1000
AcDbSavedByObjectVersion
1070
     0
  0
VISUALSTYLE
  5
2B
102
{ACAD_REACTORS
330
2A
102
}
330
2A
100
AcDbVisualStyle
  2
Flat
 70
     0
 71
     2
 72
     1
 73
     1
 90
        2
 40
-0.6
 41
30.0
 62
     5
 63
     7
 74
     0
 91
        4
 64
     7
 65
   257
 75
     1
175
     1
 42
1.0
 92
        8
 66
     7
 43
1.0
 76
     1
 77
     6
 78
     2
 67
     7
 79
     5
170
     0
171
     0
290
     0
174
     0
 93
       13
 44
0.0
173
     0
291
     1
 45
0.0
1001
ACAD
1000
AcDbSavedByObjectVersion
1070
     0
  0
VISUALSTYLE
  5
2C
102
{ACAD_REACTORS
330
2A
102
}
330
2A
100
AcDbVisualStyle
  2
FlatWithEdges
 70
     1
 71
     2
 72
     1
 73
     1
 90
        2
 40
-0.6
 41
30.0
 62
     5
 63
     7
 74
     1
 91
        4
 64
     7
 65
   257
 75
     1
175
     1
 42
1.0
 92
        0
 66
   257
 43
1.0
 76
     1
 77
     6
 78
     2
 67
     7
 79
     5
170
     0
171
     0
290
     0
174
     0
 93
       13
 44
0.0
173
     0
291
     1
 45
0.0
1001
ACAD
1000
AcDbSavedByObjectVersion
1070
     0
  0
VISUALSTYLE
  5
2D
102
{ACAD_REACTORS
330
2A
102
}
330
2A
100
AcDbVisualStyle
  2
Gouraud
 70
     2
 71
     2
 72
     2
 73
     1
 90
        2
 40
-0.6
 41
30.0
 62
     5
 63
     7
 74
     0
 91
        4
 64
     7
 65
   257
 75
     1
175
     1
 42
1.0
 92
        0
 66
     7
 43
1.0
 76
     1
 77
     6
 78
     2
 67
     7
 79
     5
170
     0
171
     0
290
     0
174
     0
 93
       13
 44
0.0
173
     0
291
     1
 45
0.0
1001
ACAD
1000
AcDbSavedByObjectVersion
1070
     0
  0
VISUALSTYLE
  5
2E
102
{ACAD_REACTORS
330
2A
102
}
330
2A
100
AcDbVisualStyle
  2
GouraudWithEdges
 70
     3
 71
     2
 72
     2
 73
     1
 90
        2
 40
-0.6
 41
30.0
 62
     5
 63
     7
 74
     1
 91
        4
 64
     7
 65
   257
 75
     1
175
     1
 42
1.0
 92
        0
 66
   257
 43
1.0
 76
     1
 77
     6
 78
     2
 67
     7
 79
     5
170
     0
171
     0
290
     0
174
     0
 93
       13
 44
0.0
173
     0
291
     1
 45
0.0
1001
ACAD
1000
AcDbSavedByObjectVersion
1070
     0
  0
VISUALSTYLE
  5
38
102
{ACAD_REACTORS
330
2A
102
}
330
2A
100
AcDbVisualStyle
  2
Linepattern
 70
    14
 71
     2
 72
     2
 73
     0
 90
        0
 40
-0.6
 41
-30.0
 62
     5
 63
     7
 74
     1
 91
        4
 64
     7
 65
   257
 75
     7
175
     7
 42
1.0
 92
        8
 66
     7
 43
1.0
 76
     1
 77
     6
 78
     2
 67
     7
 79
     5
170
     0
171
     0
290
     0
174
     0
 93
        1
 44
0.0
173
     0
291
     1
 45
0.0
1001
ACAD
1000
AcDbSavedByObjectVersion
1070
     0
  0
VISUALSTYLE
  5
33
102
{ACAD_REACTORS
330
2A
102
}
330
2A
100
AcDbVisualStyle
  2
Realistic
 70
     8
 71
     2
 72
     2
 73
     0
 90
        0
 40
-0.6
 41
-30.0
 62
     5
 63
     7
 74
     1
 91
        0
 64
     7
 65
   257
 75
     1
175
     1
 42
1.0
 92
        8
 66
     8
 43
1.0
 76
     1
 77
     6
 78
     2
 67
     7
 79
     5
170
     0
171
     0
290
     0
174
     0
 93
       13
 44
0.0
173
     0
291
     0
 45
0.0
1001
ACAD
1000
AcDbSavedByObjectVersion
1070
     0
  0
VISUALSTYLE
  5
37
102
{ACAD_REACTORS
330
2A
102
}
330
2A
100
AcDbVisualStyle
  2
Thicken
 70
    13
 71
     2
 72
     2
 73
     0
 90
        0
 40
-0.6
 41
-30.0
 62
     5
 63
     7
 74
     1
 91
        4
 64
     7
 65
   257
 75
     1
175
     1
 42
1.0
 92
       12
 66
     7
 43
1.0
 76
     1
 77
     6
 78
     2
 67
     7
 79
     5
170
     0
171
     0
290
     0
174
     0
 93
        1
 44
0.0
173
     0
291
     1
 45
0.0
1001
ACAD
1000
AcDbSavedByObjectVersion
1070
     0
  0
XRECORD
  5
1C8
102
{ACAD_REACTORS
330
1BF
102
}
330
1BF
100
AcDbXrecord
 90
        0
  0
XRECORD
  5
1DE
102
{ACAD_REACTORS
330
1BF
102
}
330
1BF
100
AcDbXrecord
1000
DSTYLE
1002
{
1070
   340
340
11
1002
}
  0
XRECORD
  5
1C9
102
{ACAD_REACTORS
330
1BF
102
}
330
1BF
100
AcDbXrecord
  1
{F92C66F9-A55D-4F12-B3C8-151CC1C3F7FB}
  0
XRECORD
  5
1C2
102
{ACAD_REACTORS
330
1BF
102
}
330
1BF
100
AcDbXrecord
  1

  0
XRECORD
  5
1C7
102
{ACAD_REACTORS
330
1BF
102
}
330
1BF
100
AcDbXrecord
 90
        1
  0
XRECORD
  5
1C4
102
{ACAD_REACTORS
330
1BF
102
}
330
1BF
100
AcDbXrecord
340
1A
  0
XRECORD
  5
1C6
102
{ACAD_REACTORS
330
1BF
102
}
330
1BF
100
AcDbXrecord
 90
    10781
  0
XRECORD
  5
1C5
102
{ACAD_REACTORS
330
1BF
102
}
330
1BF
100
AcDbXrecord
340
19
  0
XRECORD
  5
1CB
102
{ACAD_REACTORS
330
1BF
102
}
330
1BF
100
AcDbXrecord
 40
0.0
  0
XRECORD
  5
1CE
102
{ACAD_REACTORS
330
1BF
102
}
330
1BF
100
AcDbXrecord
340
0
  0
XRECORD
  5
1D4
102
{ACAD_REACTORS
330
1BF
102
}
330
1BF
100
AcDbXrecord
 10
0.0
 20
0.0
 30
0.0
  0
XRECORD
  5
1D0
102
{ACAD_REACTORS
330
1BF
102
}
330
1BF
100
AcDbXrecord
 10
0.0
 20
0.0
 30
0.0
  0
XRECORD
  5
1D3
102
{ACAD_REACTORS
330
1BF
102
}
330
1BF
100
AcDbXrecord
 10
0.0
 20
0.0
 30
0.0
  0
XRECORD
  5
1D1
102
{ACAD_REACTORS
330
1BF
102
}
330
1BF
100
AcDbXrecord
 10
0.0
 20
0.0
 30
0.0
  0
XRECORD
  5
1D2
102
{ACAD_REACTORS
330
1BF
102
}
330
1BF
100
AcDbXrecord
 10
0.0
 20
0.0
 30
0.0
  0
XRECORD
  5
1CF
102
{ACAD_REACTORS
330
1BF
102
}
330
1BF
100
AcDbXrecord
 10
0.0
 20
0.0
 30
0.0
  0
XRECORD
  5
1CC
102
{ACAD_REACTORS
330
1BF
102
}
330
1BF
100
AcDbXrecord
340
0
  0
XRECORD
  5
1CD
102
{ACAD_REACTORS
330
1BF
102
}
330
1BF
100
AcDbXrecord
 70
     0
  0
XRECORD
  5
1C3
102
{ACAD_REACTORS
330
1BF
102
}
330
1BF
100
AcDbXrecord
  1

  0
XRECORD
  5
1C0
102
{ACAD_REACTORS
330
1BF
102
}
330
1BF
100
AcDbXrecord
 90
        1
  0
XRECORD
  5
1C1
102
{ACAD_REACTORS
330
1BF
102
}
330
1BF
100
AcDbXrecord
 90
       70
  0
XRECORD
  5
1D7
102
{ACAD_REACTORS
330
1BF
102
}
330
1BF
100
AcDbXrecord
340
0
  0
XRECORD
  5
1DD
102
{ACAD_REACTORS
330
1BF
102
}
330
1BF
100
AcDbXrecord
 10
0.0
 20
0.0
 30
0.0
  0
XRECORD
  5
1D9
102
{ACAD_REACTORS
330
1BF
102
}
330
1BF
100
AcDbXrecord
 10
0.0
 20
0.0
 30
0.0
  0
XRECORD
  5
1DC
102
{ACAD_REACTORS
330
1BF
102
}
330
1BF
100
AcDbXrecord
 10
0.0
 20
0.0
 30
0.0
  0
XRECORD
  5
1DA
102
{ACAD_REACTORS
330
1BF
102
}
330
1BF
100
AcDbXrecord
 10
0.0
 20
0.0
 30
0.0
  0
XRECORD
  5
1DB
102
{ACAD_REACTORS
330
1BF
102
}
330
1BF
100
AcDbXrecord
 10
0.0
 20
0.0
 30
0.0
  0
XRECORD
  5
1D8
102
{ACAD_REACTORS
330
1BF
102
}
330
1BF
100
AcDbXrecord
 10
0.0
 20
0.0
 30
0.0
  0
XRECORD
  5
1D5
102
{ACAD_REACTORS
330
1BF
102
}
330
1BF
100
AcDbXrecord
340
0
  0
XRECORD
  5
1D6
102
{ACAD_REACTORS
330
1BF
102
}
330
1BF
100
AcDbXrecord
 70
     0
  0
XRECORD
  5
1CA
102
{ACAD_REACTORS
330
1BF
102
}
330
1BF
100
AcDbXrecord
  1
{FAEB1C32-E019-11D5-929B-00C0DF256EC4}
  0
DICTIONARYVAR
  5
1E0
102
{ACAD_REACTORS
330
1DF
102
}
330
1DF
100
DictionaryVariables
280
     0
  1
1:1
  0
ENDSEC
  0
EOF
